PrimaNota.ru - самый крупный в мире бесплатный архив песенных текстов, аккордов, табулатур и нот


Steve Vai - I Know Youre Here - текст песни, таба, видео

Регистрация Запомнить меня
Войти через:  Facebook Google Twitter Vk Yandex Mail.ru

Steve Vai - I Know Youre Here - текст песни, таба, видео

Печатать
Просмотров: 277
-------------------------------------------------------------------------------
		I Know You're Here - Steve Vai ( G3 Live in Denver)
-------------------------------------------------------------------------------

Tabbed by: Patrick McLaren
Email: smash505@msn.com

Ill add the solo and im slowly adding the 3 neck guitar solo after ive worked it out.
Sorry for the wait...Ive been doing lots of home work :(
But I should have added alot more by the end of this week:)
Ive still got a bit of the solo to go, so please be paitent
Please email me your comments!

3 Neck Guitar Solo:

Tuning:
1.(Fretless - bottom neck) EBF#G#BE
2.(Normal Neck - middle neck)EADGBE
3.(12 String - top neck) F#C#F#A#C#F#
						w/bar slight vibrato
							       . . . . 
e|----19\x-17--11----19\x-17--11----19\x-17--11------9—--6~~--------|
B|----17\x-15--14----17\x-15--14----17\x-15--14--12-12--11~~--------|
G|----16\x-14--------16\x-14--------16\x-14------10-----10~~--------|
D|----16\x-14--------16\x-14--------16\x-14-------9------x----------|
A|-------------------------------------------------------9~~--------|
E|-0-----------------------------------------------------0~~--------|

    . . . . .  . . . Let Ring    . . . . . . . . . . . . 
e|-----------9--------------------------------9----------------------------|
B|--------9-----9--------------------------9-----9-------------------------|
G|-----9-----------9--------------------9-----------9----------------------|
D|--13----------------13--11--9------9-----------------9-------------------|
A|-------------------------------13-----------------------13—11\9----------|
E|-------------------------------------------------------------------------|

   . . . . . Let Ring
e|----------9~~---------------|
B|--------12~~----------------|
G|------13~~------------------|
D|----11~~--------------------|
A|--9~~-----------------------|
E|----------------------------|


e|-------------------------------------------------------------------------|
B|---------------7--/---9---\---7---\---5---/---7~~~-----------------------|
G|---------------6--/---8---\---6---\---4---/---6~~~-----------------------|
D|-----2h4/6-4~--4--/---6---\---4---\---2---/---4~~~-----------------------|
A|---2---------------------------------------------------------------------|
E|--0----------------------------------------------------------------------|

e|-------------------------------------------------------------------------|
B|---------------7--/---9---/---12---\---7---/---9---\---5~~~--------------|
G|---------------6--/---8---/---11---\---6---/---8---\---4~~~--------------|
D|-----2h4/6-4~--4--/---6---/----9---\---4---/---6---\---2~~~--------------|
A|---2---------------------------------------------------------------------|
E|--0----------------------------------------------------------------------|

e|-------------------------------------------------------------------------|
B|---------------7--/---9---\---7---\---5---/---7--------------------------|
G|---------------6--/---8---\---6---\---4---/---6---6--4~~-----------------|
D|-----2h4/6-4~--4--/---6---\---4---\---2---/---4---4--2~~-----------------|
A|---2----------------------------------------------0--0~~-----------------|
E|--0----------------------------------------------------------------------|

  .............Let Ring
e|---0---------------------------------------------------------------------|
B|-----4--------------------------------------------------------------10-10|
G|--------4-------------------------------------------------------9-9------|
D|-----------6--------4/6\4~~------2--4/5-2p0----------------7-7-----------|
A|--------------------------------2------------5~~------5-5----------------|
E|-------------------------------0-----------------------------------------|

e|-12-12--------15-15--------17-17---------19-19--24\----------------------|
B|-------13-13--------15-15---------17-17----------------------------------|
G|-------------------------------------------------------------------------|
D|-------------------------------------------------------------------------|
A|-------------------------------------------------------------------------|
E|-------------------------------------------------------------------------|




Main Intro X3

e|-------------------------------------------------------------------------|
B|----------------------------9-12-11-9------------------------------------|
G|---------9h11~~-------------------------11~~~----------------------------|
D|--9h11p9----------9h11p9-------------------------------------------------|
A|-9--------------9--------------------------------------------------------|
E|-------------------------------------------------------------------------|

Main Riff 

e|--------------------------------------------------------12--11-----------|
B|--11-12-11----------------------12/16--14~~~~--------12---------14-12--11|
G|-----------13--11~-------9--13-------------------------------------------|
D|---------------------13--------------------------------------------------|
A|-------------------------------------------------------------------------|
E|-------------------------------------------------------------------------|

      Let ring ..............
e|-------------------------------------------------------------------------|
B|---------------------12~~~~----------------------------------------------|
G|11--------11----11-------------------------------------------------------|
D|------11-----9-----------------------------------------------------------|
A|----9--------------------------------------------------------------------|
E|-------------------------------------------------------------------------|

Vocal Part:

Chords for the vocal part:

F#......Bb m........B.....C#..... Repeat
E......G#.......C#......E7
F#........Bb m...........C#......F#


    
       1 1/2   Full  1 1/2   1/2
e|-------------------------------------------------------------------------|
B|------14b----14b----14b----14b----15~~~----------------------------------|
G|-------------------------------------------------------------------------|
D|-------------------------------------------------------------------------|
A|-------------------------------------------------------------------------|
E|-------------------------------------------------------------------------|
                   
                Full                          Full
e|-------------------------------------------------------------------------|
B|-12h14p12-----14b~~--14r~~------12h14h12-----14b~~--14r~~----------------|
G|---------15-----------------------------15-------------------------------|
D|-------------------------------------------------------------------------|
A|-------------------------------------------------------------------------|
E|-------------------------------------------------------------------------|
                                                Bend up 2 23 (*)
                                                    *   *   Full 
e|-------------------------------------------------------------------------|
B|-12h14p12-----14b~~--14r~~---12h14p12----14h16---19b--19b--19b--19-------|
G|---------15--------------------------15----------------------------------|
D|-------------------------------------------------------------------------|
A|-------------------------------------------------------------------------|
E|-------------------------------------------------------------------------|

e|-------------------------------------------------------------------------|
B|-------------------------------------------------------------------------|
G|-------------------------------------------------------------------------|
D|-------------------------------------------------------------------------|
A|-------------------------------------------------------------------------|
E|-------------------------------------------------------------------------|

w/ Wah-Wah
e|-------------------------------------------------12--11------------------|
B|--11-12-11----------------------12/16--14~~---12---------14-12--11--11-12|
G|-----------13--11~-------9--13------------------------------------11-----|
D|---------------------13--------------------------------------------------|
A|-------------------------------------------------------------------------|
E|-------------------------------------------------------------------------|



| /  slide up
| \  slide down
| h  hammer-on
| p  pull-off
| ~  vibrato
| +  harmonic
| x  Mute note
============================================================================
Добавлено: 14.06.2012
Другие материалы по этой песне:

Страница создана 29.03.2012
http://primanota.ru/steve-vai/i-know-youre-here-chords.htm
Привет, Гость.
Предлагаем пройти революционный курс по гитаре.
Подарок от PrimaNota.Ru, забирай!