PrimaNota.ru - самый крупный в мире бесплатный архив песенных текстов, аккордов, табулатур и нот


Steve Vai - Giant balls of fire - таба, видео

Регистрация Запомнить меня
Войти через:  Facebook Google Twitter Vk Yandex Mail.ru

Steve Vai - Giant balls of fire - таба, видео

Печатать
Просмотров: 64


-------------------------------------------------------------------------------
			     Giant Balls of Fire - Steve Vai
-------------------------------------------------------------------------------
Tabbed by: a big vai fan
Email: mtdew1014@yahoo.com

Tuning:

e|----------------|------------0---------------------------------------------|
B|----------------|------------0---------------------------------------------|
G|----------------|------------3---------------------------------------------|
D|----------------|------------4---------------------------------------------|
A|4-22--22--22--22|4-22--22--2-4---------------------------------------------|
E|2-00--00--00--00|2-00--00--0-x---------------------------------------------|

Добавлено: 20.10.2013
Другие материалы по этой песне:
  • Аккорды и текст

Страница создана 20.10.2013
http://primanota.ru/steve-vai/giant-balls-of-fire-chords.htm
Привет, Гость.
Предлагаем пройти революционный курс по гитаре.
Подарок от PrimaNota.Ru, забирай!