PrimaNota.ru - самый крупный в мире бесплатный архив песенных текстов, аккордов, табулатур и нот


Steve Vai - Bledsoe Blvd. - таба, видео

Регистрация Запомнить меня
Войти через:  Facebook Google Twitter Vk Yandex Mail.ru

Steve Vai - Bledsoe Blvd. - таба, видео

Печатать
Просмотров: 126
BLEDSOE BLVD.   By Steve Vai

From the album Flexable

Tabbed by Mike Greene


This is only the main theme from the tune.  It should get you up until the solo starts, then you are on your own. Listen to the song to get the timing down, and how many times the intro theme repeats itself. Feel free to add to this or make any corrections.Good luck and have fun with it.


Intro.

E---------13--16--13--------------13-------------------------------------------
B-----14--------------16--14--16------16---------------------------------------
G-13---------------------------------------------------------------------------
D------------------------------------------------------------------------------
A------------------------------------------------------------------------------
E------------------------------------------------------------------------------


E---------13--16--13----------------------------13-----------------------------
B-----14--------------16--14--16------------14---------------------------------
G-13--------------------------------13--13------------(repeats)----------------
D------------------------------------------------------------------------------
A------------------------------------------------------------------------------
E------------------------------------------------------------------------------


E-----------------13-----------------------------------------------------------
B-16----------14---------------------------------------------------------------
G-----13--13-------------------------------------------------------------------
D------------------------------------------------------------------------------
A------------------------------------------------------------------------------
E------------------------------------------------------------------------------


E-10-h-11-p-10---------------11-/-13--10---------------------------------------
B------------------11------------------------11--------------------------------
G----------------------10--------------------------10--------------------------
D------------------------------------------------------------------------------
A------------------------------------------------------------------------------
E------------------------------------------------------------------------------


E-9-9-9-9------------9-9-9-9---------------------------------------------------
B------------------------------------------------------------------------------
G------------------------------------------------------------------------------
D------------------------------------------------------------------------------
A------------------------------------------------------------------------------
E------------------------------------------------------------------------------


E-13--14--13---------------/-16----13------------------------------------------
B---------------14-----------------------14------------------------------------
G--------------------13------------------------13------------------------------
D------------------------------------------------------------------------------
A------------------------------------------------------------------------------
E------------------------------------------------------------------------------


E------------------------------------------------------------------------------
B--------------------------18--18--18--18--------------------------------------
G-16--16--16--16---------------------------------------------------------------
D------------------------------------------------------------------------------
A------------------------------------------------------------------------------
E------------------------------------------------------------------------------
Добавлено: 25.03.2012
Другие материалы по этой песне:
  • Аккорды и текст

Страница создана 25.03.2012
http://primanota.ru/steve-vai/bledsoe-blvd-chords.htm
Привет, Гость.
Предлагаем пройти революционный курс по гитаре.
Подарок от PrimaNota.Ru, забирай!