PrimaNota.ru - самый крупный в мире бесплатный архив песенных текстов, аккордов, табулатур и нот


Steve Vai - Damn Good - аккорды и текст, таба, видео

Регистрация Запомнить меня
Войти через:  Facebook Google Twitter Vk Yandex Mail.ru

Steve Vai - Damn Good - аккорды и текст, таба, видео

Печатать
Просмотров: 86
Уроки эстрадного вокала в Санкт-Петербурге
Авторы музыки: Steve Vai, David Lee Roth

Damn Good
Steve Vai
		   Tabbed & transcribed by Sayavongsa Rathasath

For this song,drop D tuning!
you must tune down 1 step your E-string!!
So,you obtain a D-string for the first string!!!

            let ring....
                           s               s
E---------|------0------|---------0----------------------|-
B---------|------1------|-------3---3---3-----1----------|-
G---------|------0------|-----0--------------------------|-
D---------|------2------|-2/4---------4---4\2-2----------|-
A-------5-|----0--------|------------------------------5-|-
D-0h5h7---|-0-----------|------------------------0h5h7---|-


  let ring....
                 s               s
E------0------|---------0----------------------|-
B------1------|-------3---3---3----------------|-
G------0------|-----0--------------------------|-
D------2------|-2/4---------4---4\2------------|-
A----0--------|------------------------------5-|-
D-0-----------|------------------------0h5h7---|-


  let ring....
                 s               s
E------0------|---------0----------------------|-
B------1------|-------3---3---3-----1----------|-
G------0------|-----0--------------------------|-
D------2------|-2/4---------4---4\2-2----------|-
A----0--------|------------------------------5-|-
D-0-----------|------------------------0h5h7---|-


  let ring....
                 s               s
E------0------|---------0----------------------|-
B------1------|-------3---3---3----------------|-
G------0------|-----0--------------------------|-
D------2------|-2/4---------4---4\2------------|-
A----0--------|------------------------------5-|-
D-0-----------|------------------------0h5h7---|-


     let ring.......      let ring.......
     *
E----x--0------0-----|----3--0-----0------|-
B----3----3------3---|----3----3-----3----|-
G----5------5------5-|----5------5------5-|-
D----5---------------|----5---------------|-
A-0------------------|-3------------------|-
D--------------------|--------------------|-


  let ring..........

E----3--3------------|----7-7--5-5--------|-
B----5----5-----5----|----8-8--7-7--------|-
G----5------5------5-|----9-9--7-7--------|-
D----3--------5------|----7----7-7--------|-
A----3---------------|--------------------|-
D-3------------------|-0------------------|-


     let ring.......      let ring....
     *
E----x--0------0-----|----3--0-----0------|-
B----3----3------3---|----3----3-----3----|-
G----5------5------5-|----5------5------5-|-
D----5---------------|----5---------------|-
A-0------------------|-3------------------|-
D--------------------|--------------------|-

* play both the ghost note and the note on the B-string with the same finger (forefinger)


  let ring..........         **       ***       **          ***

E----3--3------------|------ 12>------ 7>------- 7>-|------- 5>------|--
B----5----5-----5----|------ 12>------ 7>------- 7>-|------- 5>------|--
G----5------5------5-|------ 12>------ 7>------- 7>-|------- 5>------|--
D----3--------5------|------ 12>------ 7>------- 7>-|------- 5>------|--
A----3---------------|-9/10------12\9-----9\7-5-----|-7\5-3----------|--
D-3------------------|------------------------------|----------------|--

**  low to high
*** high to low



If you have any suggestions or corrections to do,e-mail me!!!!!
sayavongsa_ratha@yahoo.fr


---------------------------------------------------------------------------

' - bend              example:-15'-----'(15)
' - release                   bend     release to original note
^ - bend and release
(2) - ghost note         AH - Artificial Harmonic
X - percussive sound     P - Pull-off
/ - slide up             H - Hammer-on
\ - slide down           trem. - tremolo (whammy) bar
~ - vibrato
.. - note held           Note: Please read EVERYTHING above the staff
PM - palm muted                as well as in it!!     
Добавлено: 12.11.2013
Другие материалы по этой песне:
  • Аккорды и текст

Страница создана 12.11.2013
http://primanota.ru/steve-vai/damn-good-chords.htm
Привет, Гость.
Предлагаем пройти революционный курс по гитаре.
Подарок от PrimaNota.Ru, забирай!