PrimaNota.ru - самый крупный в мире бесплатный архив песенных текстов, аккордов, табулатур и нот


Steel Dragon - Rock Star Soundtrack - таба, видео

Регистрация Запомнить меня
Войти через:  Facebook Google Twitter Vk Yandex Mail.ru

Steel Dragon - Rock Star Soundtrack - таба, видео

Печатать
Просмотров: 97
Livin' The Life

Tuning:standard

^ = bend    S = slide    H = hammer on


|-----------------------------------------------|-------------|
|-----------------------------------------------|-------------|
|-----------------------------------------------|-------------|
|--------------------------------------5----5-4-|-------------|
|-4444---4444---4444---4444---4444-----3----3-2-|-4-----------|
|-2222---2222---2222---2222---2222--------0-----|-2-----------|


                                     + mute
|----------------------------------|---------------------|---------|
|----------------------------------|---------------------|---------|
|---------------------3^-----------|----------+++-----+++|---------|
|--------------------------5----5-4|---+++--2-222---4-444|-5---5-4-|
|-4444---4444---4444-------3----3-2|-4-444--0-000---2-222|-3---3-2-|
|-2222---2222---2222----------0----|-2-222---------------|---0-----|

|---------------------------|-----------------------------------|
|---------------------------|-----------------------------------|
|---------------------------|--------3^-------------------------|
|---------------------------|-7--4------------------------------|
|-4444-4444-4444------------|-5--2------------------------------|
|-2222-2222-2222--0-3^-0-3^-|-----------------------------------|

|-----------------------------------|---|--------|----------------|
|-----------------------------------|---|--------|----------------|
|-----------------------------------|---|--------|----------------|
|--------------------2--------------|---|--------|-7--4-----------|
|-4-4-4-4-4-4----4---0---4---4-4-4-4|-4-|-10--9--|-5--2-----------|
|-2-2-2-2-2-2----2-------2---2-2-2-2|-2-|-0---7--|----------------|

Solo: mess with this

|-------------------|------------------|-------------------------|
|-------------------|------------------|-------------------------|
|-11~--9~--11~--13~-|-12-11-9--------9-|-11~-9~--11~-------------|
|-------------------|----------12-11---|-------------------------|
|-------------------|------------------|-------------------------|
|-------------------|------------------|-------------------------|

|-12-9------------------------------12-9------------------12-9-------|
|-------12-9--------12-9------12-9--------12-9-------12-9-------12-9-|
|-------------11-9--------11--------------------11-9-----------------|
|--------------------------------------------------------------------|
|--------------------------------------------------------------------|
|--------------------------------------------------------------------|

|-15-12-9------12-9--15-12-9------12-11-9---------15-12-10-9--------------|
|---------12-9---------------12-9---------12-10-9------------12-10-9---13^|
|-------------------------------------------------------------------------|
|-------------------------------------------------------------------------|
|-------------------------------------------------------------------------|
|-------------------------------------------------------------------------|


|------------------------------------------------------------------|
|------------------------------------------------------------------|
|-16-18-20-18-16-18-20-18-16-18-10-18-16-18-20----17^-17^-17^-17^--|
|------------------------------------------------------------------|
|------------------------------------------------------------------|
|------------------------------------------------------------------|

|-------------------|-----------------------------------------------------------|
|-------------------|--------------12h14h12-------------------------------------|
|-17-16-14-------14-|-17-17-17-17--------------16^------------------------------|
|----------17-16----|-----------------------------------------------------------|
|-------------------|-----------------------------------------------------------|
|-------------------|-----------------------------------------------------------|

|-------------------------------------------------------------------------------|
|-------------------------------------------------------------------------------|
|-------------------------------------------------------------------------------|
|------------------15-17-19--------------------------------14-16-18--16-17-19---|
|---------15-17-19---------------------14-16-18--16-17-19-----------------------|
|15-17-19-------------------14-16-18--------------------------------------------|


|--------------------------------------------------------------|
|--------------------------------------------------------------|
|--------------------------------------------------------------|
|------------------16-18-20--------------------15-17-19--------|
|---------15-17-19--------------------15-17-19-----------------|
|14-16-18--------------------15-17-19--------------------------|
hold finger your left hand finger at 17 and slide up the neck with
with your right hand finger and hammer on
|----------------------------------------------------------------|
|----------------------------------------------------------------|
|-17h-16s-17h-15s-17h-14s-17h-13s-17-h-12s-17h-11s-17h-10s-17h-9-|
|----------------------------------------------------------------|
|----------------------------------------------------------------|
|----------------------------------------------------------------|

We All Die Young

Tuning: Db Ab Db Gb Bb Eb


h= hammer on
/= slide
^ bend
intro on bass then guitar does this with delay

|-------------------------------------------------------------|
|-------------------------------------------------------------|
|------------------------7-h-9-h-7----------------------------|
|--------------7-h-9------------------------------------------|
|---7-h-9-----------------------------------------------------|
|-------------------------------------------------------------|

      Chorus
|------|------------------------------------------|----------|
|------|------------------------------------------|----------|
|--3^--|------------------------------------------|----------|
|------|--5---4-----------------------------------|----------|
|------|--3---2------------------0----------0--0--|--0-0-----|
|------|---------------5^--------0----------0--0--|--0-0-----|

|----------------------------------------------------------------------------------|
|-8/10-10-10-10-10-10----10\12-12/8-8-8-8-8-8----7\8 8 8 8 8 8----8/-7 7 7 7 7 7---|
|----------------------------------------------------------------------------------|
|----------------------------------------------------------------------------------|
|----------------------------------------------------------------------------------|
|----------------------------------------------------------------------------------|

              mess around with this solo
|---------------------------------------------------------------|
|-----------------------------------------10-----10----10-------|
|---------------7h9h7--7--9^--9^---------9------9-------7^------|
|--------7h9----------------------------------------------------|
|-7h9-----------------------------------------------------------|
|---------------------------------------------------------------|

|-------------------|-----------------------------------------------------------------------|
|-------------------|-10-9-7-----------------7-9---12-11-9--------10-9-7-------12-11-9------|
|----------------7h9|--------9-7---7-9-10-------------------11-9---------9-7----------11-9--|
|--------7h9--------|-----------------------------------------------------------------------|
|-7h9---------------|-----------------------------------------------------------------------|
|-------------------|-----------------------------------------------------------------------|


|---------------------------x3-|------------------------------------------------|
|-12-11-9---10-9-7-------------|-7/10--12^-12^-12^--7h10h12---------------------|
|------------------------------|------------------------------------------10^---|
|------------------------------|------------------------------------------------|
|------------------------------|------------------------------------------------|
|------------------------------|------------------------------------------------|

|--------------9-10-14-10-9----------------------9-10-14-10-9-------------------------9-10-14-10-9-|
|--9-10-14----------------------14-0-9-10-14----------------------14-10-9-10-14--------------------|
|--------------------------------------------------------------------------------------------------|
|--------------------------------------------------------------------------------------------------|
|--------------------------------------------------------------------------------------------------|
|--------------------------------------------------------------------------------------------------|

|-----------------------9-10-15-10-9--|----------------------------|
|-14-10-9-10-14-----------------------|--13^---17^--15^--14^--13^--|
|-------------------------------------|----------------------------|
|-------------------------------------|----------------------------|
|-------------------------------------|----------------------------|
|-------------------------------------|----------------------------|

|------------------------------|-----------------------------------------|
|------------------------------|-----------------------------------------|
|------------------------------|-----------------------------------------|
|-----------------------12--14^|------------------------14h12h14--15^----|
|------------11--15------------|---------------14h15^--------------------|
|-11--15-----------------------|-14h15-17--------------------------------|

|----------------------------------------------------------|
|-18-15-18-15-18-15-18-15----------------------------------|
|--------------------------------------17-15-17-15-17-15---|
|----------------------------------------------------------|
|----------------------------------------------------------|
|----------------------------------------------------------|

Blood Pollution

Tune 1/2 step down

intro:
eb-------------------|--------------------------------------|
Bb-------------------|--------------------------------------|
Gb-------------------|--------------------------------------|
Db--11----9-----11---|--------------------------------------|
Ab---9----7-----9----|--------------------------------------|
Eb-------------------|--------------------------------------|
                                    repeat
eb---------------------------------------|------------------|
Bb---------------------------------------|------------------|
Gb---------------------------------------|------------------|
Db---------------------------------------|-----------0--2---|
Ab---4-4-4-4-4---0-0---4-4-4-4-4---0-0---|-4-4-4-4-4--------|
Eb---0-2-2-0-2---0-0---0-2-2-0-2---0-0---|-0-2-2-0-2--------|

Give me blood....
eb---------------------------------------------------------|
Bb---------------------------------------------------------|
Gb---------------------------------------------------------|
Db---------------------------------------------------------|
Ab---4-4-4-4-4-----------4-4-4-4-4-------------------------|
Eb---0-2-2-0-2---x2-x2---0-2-2-0-2---x2-x2-----------------|
               harmonics            harmonics

eb---------------------------------------------------------|
Bb---------------------------------------------------------|
Gb---------------------------------------------------------|
Db--9------7-----4------~4---------------------------------|
Ab--7------5-----2-----------------------------------------|
Eb---------------------------------------------------------|

Any parts not written use the same 5 chords.

Stand Up

Dropped Bb tuning

~ = Artificial Harmonic

eb---------------------------------------------------------|
Bb---------------------------------------------------------|
Gb---------------------------------------------------------|
Db---------------------------------------------------------|
Ab----------------2-2---2-2---2-2--------------------------|
Bb--6--5--4--3----0-0---0-0---0-0--------------------------|
    with wah

eb---------------------------------------------------------|
Bb---------------------------------------------------------|
Gb---------------------------------------------------------|
Db---------------------------------------------------------|
Ab--2-2--2-2--2-2------------------------------------------|
Bb--0-0--0-0--0-0---0--3--5--5~^--3~-----------------------|
                            up 
Добавлено: 22.01.2014
Другие материалы по этой песне:
  • Аккорды и текст

Страница создана 22.01.2014
http://primanota.ru/steel-dragon/rock-star-soundtrack-chords.htm
Привет, Гость.
Предлагаем пройти революционный курс по гитаре.
Подарок от PrimaNota.Ru, забирай!