PrimaNota.ru - самый крупный в мире бесплатный архив песенных текстов, аккордов, табулатур и нот


Steel Dragon - Long Live Rock And Roll - текст песни, таба, бас-таба, видео

Регистрация Запомнить меня
Войти через:  Facebook Google Twitter Vk Yandex Mail.ru

Steel Dragon - Long Live Rock And Roll - текст песни, таба, бас-таба, видео

Печатать
Просмотров: 274
----------------------------------------------------------------------------
LONG LIVE ROCK AND ROLL - Steel Dragon
----------------------------------------------------------------------------


Tabbed by: 2guitargod4 (sam)
Email: sam.rocks.123@hotmail.com

Tuning: this tab is in standard tuning(EADGBe)
        the actual recorded song is played half a step down(EbAbDbGbBbEb)
        the only difference is with a few notes, which i have substituted
        for the octave note in this tab in order for it to be played in
        standard. Not much noticable difference.

INTRO
e|----------------|
B|----------------|
G|----------------|
D|-------2-3------|
A|-X\\---2-3------|
E|-X\\---0-1------|

e|---------------------------------------------------|
B|---------------------------------------------------|
G|-----<4>---<2>-------------------------------------|
D|---------4-----<4>---2---<2>---<2>---2-<4>~--------|
A|-----------------------4-----4-----4---------------|
E|-2-2-----------------------------------------------|
   pm-|    pm          pm-|    pm    pm

e|-----------------------------------------|
B|-----------------------------------------|
G|-----<4>---<2>---------------------------|
D|---------4-----<4>---<2>---2-<4>~~~\-----|
A|-------------------------4---------------|
E|-2-2-------------------------------------|
   pm-|    pm              pm

e|---------------------------------------------------|
B|---------------------------------------------------|
G|-----<4>---<2>-------------------------------------|
D|---------4-----<4>---2---<2>---<2>---2-<4>~--------|
A|-----------------------4-----4-----4---------------|
E|-2-2-----------------------------------------------|
   pm-|    pm          pm-|    pm    pm


FILL
e|-------------------------------------|
B|-------------------------------------|
G|-------------------------------------|
D|-2---<2>h4-<2>~----------------------|
A|--4------------<4>-2-----------------|
E|---------------------<5>-<2>--0-1----|
   pm

VERSE
                  sounds bettr
                  without pulloff
e|---------------------------|-------------------------------|---------------|
B|---------------------------|-------------------------------|---------------|
G|---------------------------|-------------------------------|---------------|
D|-----<4>-----------4(p)2---|-------<4>-----------4(p)2-----|-------<4>-----|
A|-------------------------4-|---------------------------4---|---------------|
E|-2-2-----2-3b4r3-2---------|-2-3-2-----2-3b4r3-2-----------|-2-3-2-----2---|
   pm-|    pm      pm      pm  pm---|    pm      pm      pm    pm------------|     pm

e|-------------------------------|
B|-------------------------------|
G|-------------------------------|
D|---------4(p)2-----------------|
A|---------------4--------<2>~~~-|
E|-3b4r3-2----------0-1-0--------|
         pm      pm

e|---------------------------|-------------------------------|---------------|
B|---------------------------|-------------------------------|---------------|
G|---------------------------|-------------------------------|---------------|
D|-----<4>-----------4(p)2---|-------<4>-----------4(p)2-----|-------<4>-----|
A|-------------------------4-|---------------------------4---|---------------|
E|-2-2-----2-3b4r3-2---------|-2-3-2-----2-3b4r3-2-----------|-2-3-2-----2---|
   pm-|    pm      pm      pm  pm---|    pm      pm      pm    pm------------|     pm

e|--------------------------------------------------------------|
B|--------------------------------------------------------------|
G|--------------------------------------------------------------|
D|---------4(p)2----4h7p4h7p4h7p4h7p4h7p4h7p4h7p4h7-------------|
A|---------------4----------------------------------------------|
E|-3b4r3-2------------------------------------------------------|
         pm      pm "writing      on        the


PRE CHORUS                                                           wah
e|--------------------------------------------------------------------------|
B|-----------------------------------------------------------------5--------|
G|--------------------------------------------7----------9---------7b9r7b9~-|
D|--------------------------------------------7----------9------------------|
A|-------------------<2>----------------------5----------7------------------|
E|-5----4-2-0----2-4-----5-4-<2>~~------------------------------------------|
        pm-|     pm-|    pm-|
   wall it cries for you             its the least that you can do

e|---------------------------------------------------------------------------|
B|---------------------------------------------------------------------------|
G|---------------------------------------------------------------------------|
D|-------------------------------------------------------------2-3-----------|
A|----------------------<2>------------------------------------2-3-----------|
E|--5----4-2-0----2-4---------5-4-<2>~~~---000000000000000000--0-1-----------|
         pm-|     pm-|        pm-|         pm--------------------------------|
    Like a spiral on the wind            I can hear it screamin...


  CHORUS (same as intro)
e|---------------------------------------------------|
B|---------------------------------------------------|
G|-----<4>---<2>-------------------------------------|
D|---------4-----<4>---2---<2>---<2>---2-<4>~--------|
A|-----------------------4-----4-----4---------------|
E|-2-2-----------------------------------------------|
   pm-|    pm          pm-|    pm    pm

       "LONG    LIVE       ROCK   AND   ROLL"

e|-----------------------------------------|
B|-----------------------------------------|
G|-----<4>---<2>---------------------------|
D|---------4-----<4>---<2>---2-<4>~~~\-----|
A|-------------------------4---------------|
E|-2-2-------------------------------------|
   pm-|    pm              pm

       "LONG    LIVE    ROCK AND ROLL"

e|---------------------------------------------------|
B|---------------------------------------------------|
G|-----<4>---<2>-------------------------------------|
D|---------4-----<4>---2---<2>---<2>---2-<4>~--------|
A|-----------------------4-----4-----4---------------|
E|-2-2-----------------------------------------------|
   pm-|    pm          pm-|    pm    pm

       "LONG    LIVE       ROCK   AND   ROLL"

FILL
e|-------------------------------------|
B|-------------------------------------|
G|-------------------------------------|
D|-2---<2>h4-<2>~----------------------|
A|--4------------<4>-2-----------------|
E|---------------------<5>-<2>--0-1----|
   pm

VERSE
                  sounds bettr
                  without pulloff
e|---------------------------|-------------------------------|---------------|
B|---------------------------|-------------------------------|---------------|
G|---------------------------|-------------------------------|---------------|
D|-----<4>-----------4(p)2---|-------<4>-----------4(p)2-----|-------<4>-----|
A|-------------------------4-|---------------------------4---|---------------|
E|-2-2-----2-3b4r3-2---------|-2-3-2-----2-3b4r3-2-----------|-2-3-2-----2---|
   pm-|    pm      pm      pm  pm---|    pm      pm      pm    pm------------|     pm

e|-------------------------------|
B|-------------------------------|
G|-------------------------------|
D|---------4(p)2-----------------|
A|---------------4--------<2>~~~-|
E|-3b4r3-2----------0-1-0--------|
         pm      pm

e|---------------------------|-------------------------------|---------------|
B|---------------------------|-------------------------------|---------------|
G|---------------------------|-------------------------------|---------------|
D|-----<4>-----------4(p)2---|-------<4>-----------4(p)2-----|-------<4>-----|
A|-------------------------4-|---------------------------4---|---------------|
E|-2-2-----2-3b4r3-2---------|-2-3-2-----2-3b4r3-2-----------|-2-3-2-----2---|
   pm-|    pm      pm      pm  pm---|    pm      pm      pm    pm------------|     pm

                            with wah
e|--------------------------------------------------------------|
B|--------------------------------------------------------------|
G|-------------------/6-4h6p4h6p4h6p4h5p4h6p4-------------------|
D|---------4(p)2-----------------------------<7>~~--------------|
A|---------------4----------------------------------------------|
E|-3b4r3-2------------------------------------------------------|
         pm      pm
                     "seemed      to    say   it"

PRE CHORUS                                                       wah
e|--------------------------------------------------------------------------|
B|--------------------------------------------------------------7----9------|
G|--------------------------------------------7----------9------9b11~11b13~-|
D|--------------------------------------------7----------9------------------|
A|-------------------<2>----------------------5----------7------------------|
E|-5----4-2-0----2-4-----5-4-<2>~~------------------------------------------|
   all  it cries for you             its the least that you can do

                                                        tr pick
e|---------------------------------------------------------------------------|
B|---------------------------------------------------------------------------|
G|---------------------------------------------------------------------------|
D|--------------------------------------------------------------2-3----------|
A|----------------------<2>-------------------------------------2-3----------|
E|--5----4-2-0----2-4---------5-4-<2>~~~---000000000000-0/19\0--0-1----------|
                                           pm--------------------------------|
Like a spiral on the wind            I can hear it screamin...


CHORUS (same as intro)
e|---------------------------------------------------|
B|---------------------------------------------------|
G|-----<4>---<2>-------------------------------------|
D|---------4-----<4>---2---<2>---<2>---2-<4>~--------|
A|-----------------------4-----4-----4---------------|
E|-2-2-----------------------------------------------|
   pm-|    pm          pm-|    pm    pm

       "LONG    LIVE       ROCK   AND   ROLL"

e|-----------------------------------------|
B|-----------------------------------------|
G|-----<4>---<2>---------------------------|
D|---------4-----<4>---<2>---2-<4>~~~\-----|
A|-------------------------4---------------|
E|-2-2-------------------------------------|
   pm-|    pm              pm

       "LONG    LIVE    ROCK AND ROLL"

e|---------------------------------------------------|
B|---------------------------------------------------|
G|-----<4>---<2>-------------------------------------|
D|---------4-----<4>---2---<2>---<2>---2-<4>~--------|
A|-----------------------4-----4-----4---------------|
E|-2-2-----------------------------------------------|
   pm-|    pm          pm-|    pm    pm

       "LONG    LIVE       ROCK   AND   ROLL"

FILL
e|-------------------------------------|
B|-------------------------------------|
G|-------------------------------------|
D|-2---<2>h4-<2>~----------------------|
A|--4------------<4>-2-----------------|
E|---------------------<5>-<2>--0-1----|
   pm            ROCK    AND   ROLL!!

  SOLO is coming
e|--------------------------------------------------------------------------|
B|--------------------------------------------------------------------------|
G|--------------------------------------------------------------------------|
D|-------------------------SOLO---------------------------------------------|
A|--------------------------------------------------------------------------|
E|--------------------------------------------------------------------------|

e|--------------------------------------------------------------------------|
B|--------------------------------------------------------------------------|
G|--------------------------------------------------------------------------|
D|-------------------------SOLO---------------------------------------------|
A|--------------------------------------------------------------------------|
E|--------------------------------------------------------------------------|

e|--------------------------------------------------------------------------|
B|--------------------------------------------------------------------------|
G|--------------------------------------------------------------------------|
D|-------------------------SOLO---------------------------------------------|
A|--------------------------------------------------------------------------|
E|--------------------------------------------------------------------------|

e|--------------------------------------------------------------------------|
B|--------------------------------------------------------------------------|
G|--------------------------------------------------------------------------|
D|-------------------------SOLO---------------------------------------------|
A|--------------------------------------------------------------------------|
E|--------------------------------------------------------------------------|

e|--------------------------------------------------------------------------|
B|--------------------------------------------------------------------------|
G|--------------------------------------------------------------------------|
D|-------------------------SOLO---------------------------------------------|
A|--------------------------------------------------------------------------|
E|--------------------------------------------------------------------------|

e|--------------------------------------------------------------------------|
B|--------------------------------------------------------------------------|
G|--------------------------------------------------------------------------|
D|-------------------------SOLO---------------------------------------------|
A|--------------------------------------------------------------------------|
E|--------------------------------------------------------------------------|

play chorus/intro x3 - fills to be added soon
last time slowly end on "fill"


END SOLO coming soon
e|--------------------------------------------------------------------------|
B|--------------------------------------------------------------------------|
G|--------------------------------------------------------------------------|
D|------------------------END SOLO -----------------------------------------|
A|--------------------------------------------------------------------------|
E|--------------------------------------------------------------------------|

e|--------------------------------------------------------------------------|
B|--------------------------------------------------------------------------|
G|--------------------------------------------------------------------------|
D|------------------------END SOLO------------------------------------------|
A|--------------------------------------------------------------------------|
E|--------------------------------------------------------------------------|

END

awesome song
please rate + comment

************************************

| /   slide up
| \   slide down
| h   hammer-on
| p   pull-off
| ~   vibrato
| <>  harmonic
| pm  palm mute
| X\  pick slide (edge of pick is slided down appropriate strings)
| x   Mute note
| b   Bend
| pb  Pre-bend
| br  Bend release
| pbr Pre-bend release
| brb Bend release bend

************************************
Добавлено: 04.06.2013
Другие материалы по этой песне:
  • Аккорды и текст

Страница создана 04.06.2013
http://primanota.ru/steel-dragon/long-live-rock-and-roll-chords.htm
Привет, Гость.
Предлагаем пройти революционный курс по гитаре.
Подарок от PrimaNota.Ru, забирай!