PrimaNota.ru - самый крупный в мире бесплатный архив песенных текстов, аккордов, табулатур и нот


Steel Dragon - Livin The Life - таба, видео

Регистрация Запомнить меня
Войти через:  Facebook Google Twitter Vk Yandex Mail.ru

Steel Dragon - Livin The Life - таба, видео

Печатать
Просмотров: 484
Уроки эстрадного вокала в Санкт-Петербурге
Авторы: Steve Plunkett, Peter Beckett

Song: Livin' the Life
Band: Steel dragon
Tabbed by: Brian-guitarist

This is a sick song from the best movie, Rockstar, and played by one of the best rock 
ever, Zakk Wylde.

Key:
h...............hammeron
p...............pulloff
/...............slide up
\...............slide down
.............pinch harmonic
n*..............semi harmonic
b...............bend (the number following the symbol represents the frett pitch you 
bend to)

Intro:

e|------------------------------------------------------------|
B|------------------------------------------------------------|
G|--------------------------------------------<4>-------------|
D|-4--444444444-------10-10-9--4-44444--------------9/10-10-7-|
A|-4--444444444-(etc.)10-10-9--4-44444-(etc.)-------9/10-10-7-|
E|-2--222222222--------8--8-7--2-22222--------------7/-8--8-9-|

That Harmonic is not necessarily in that spot because everybody harmonics differently, 
just do whatever you want with that note.

Riff One:

e|------------------------------------------------------------|
B|------------------------------------------------------------|
G|------------------------------------------------------------|
D|-4-44444-7-44444-9-44444--9/10-9/10-9-----------------------|
A|-4-44444-7-44444-9-44444--9/10-9/10-9-----------------------|
E|-2-22222-5-22222-7-22222--7/-8-7/-8-7-----------------------|

You play that riff twice each time you play it except for the second time.

Verse:

e|------------------------------------------------------------|
B|------------------------------------------------------------|
G|------------------------------------------------------------|
D|-4-444444-------------------4-44444----------<5>------------|
A|-4-444444-(etc.)------------4-44444-(etc.)--------<5>-------|
E|-2-222222---------<5>--<3>--2-22222-------------------------|

Again, everybody harmonics differently, so they don't necessarily have to be in those locations.

Interlude:

e|------------------------------------------------------------|
B|------------------------------------------------------------|
G|-4/6-4/6-4/6-4/6---4/6-4/6-4-<4>----------------------------|
D|-4/6-4/6-4/6-4/6---4/6-4/6-4--------------------------------|
A|-2/4-2/4-2/4-2/4---2/4-2/4-2--------------------------------|
E|------------------------------------------------------------|

Chorus:

e|------------------------------------------------------------|
B|------------------------------------------------------------|
G|----------------11-11---------------------------------------|
D|-4-44444--------11-11--4-7\4-7\4--4-4--9/10--9/10-9---------|
A|-4-44444-(etc.)--9--9--4-7\4-7\4--4-4--9/10--9/10-9---------|
E|-2-22222---------------2-5\2-5\2--2-2--7/-8--7/-8-7---------|

You play that riff twice the first two times and four times the last time.

After the chorus you play:

e|------------------------------------------------------------|
B|------------------------------------------------------------|
G|-4/6-4/6-4/6-4/6--------------9-----------------------------|
D|-4/6-4/6-4/6-4/6---7/9-7/9-7--9-----------------------------|
A|-2/4-2/4-2/4-2/4---7/9-7/9-7--7-----------------------------|
E|-------------------5/7-5/7-5--------------------------------|

Those are pretty much all of the riffs in this song. I don't know the solo yet, but when 
might post it later on when i figure it out. Listen to the track, or the movies, for 
It's an easy song, as most are, but it is really cool. In the ending you just play:

e|------------------------------------------------------------|
B|------------------------------------------------------------|
G|------------------------------------------------------------|
D|-10--9--7--4------------------------------------------------|
A|-10--9--7--4------------------------------------------------|
E|--8--7--5--2------------------------------------------------|

Rock on!
Добавлено: 20.06.2013
Другие материалы по этой песне:
  • Аккорды и текст

Страница создана 20.06.2013
http://primanota.ru/steel-dragon/livin-the-life-chords.htm
Привет, Гость.
Предлагаем пройти революционный курс по гитаре.
Подарок от PrimaNota.Ru, забирай!