PrimaNota.ru - самый крупный в мире бесплатный архив песенных текстов, аккордов, табулатур и нот


Smile Empty Soul - Disease - текст песни, таба, видео

Регистрация Запомнить меня
Войти через:  Facebook Google Twitter Vk Yandex Mail.ru

Smile Empty Soul - Disease - текст песни, таба, видео

Печатать
Просмотров: 194
Artist: Smile Empty Soul
Song: Disease
Album: Vultures
Tuning: Db Ab Db Gb Bb eb
Composer: Sean Danielson; Mike Booth

Intro/Verse
|-------------------------------------------------------------------------|
|-------------------------------------------------------------------------|
|-------------------------------------------------------------------------|
|-9-9-9-9-9-9-9-9-11-11-11-11-11-11-11-11-5-5-5-5-5-5-5-5-5-5-5-5-5-5-5-5-|
|-9-9-9-9-9-9-9-9-11-11-11-11-11-11-11-11-5-5-5-5-5-5-5-5-5-5-5-5-5-5-5-5-|
|-9-9-9-9-9-9-9-9-11-11-11-11-11-11-11-11-5-5-5-5-5-5-5-5-5-5-5-5-5-5-5-5-|

|-----------------------------------------------------------------|
|-----------------------------------------------------------------|
|-----------------------------------------------------------------|
|-7-7-7-7-7-7-7-7-3-3-3-3-3-3-3-3-1-1-1-1-1-1-1-1-0-0-0-0-0-0-0-0-|
|-7-7-7-7-7-7-7-7-3-3-3-3-3-3-3-3-1-1-1-1-1-1-1-1-0-0-0-0-0-0-0-0-|
|-7-7-7-7-7-7-7-7-3-3-3-3-3-3-3-3-1-1-1-1-1-1-1-1-0-0-0-0-0-0-0-0-|

Pre Chorus
|---------------------------------------------------------------------------------|
|---------------------------------------------------------------------------------|
|-11-11-11-11-11-11-11-11-13-13-13-13-13-13-13-13-7-7-7-7-7-7-7-7-7-7-7-7-7-7-7-7-|
|--9--9--9--9--9--9--9--9-11-11-11-11-11-11-11-11-5-5-5-5-5-5-5-5-5-5-5-5-5-5-5-5-|
|--9--9--9--9--9--9--9--9-11-11-11-11-11-11-11-11-5-5-5-5-5-5-5-5-5-5-5-5-5-5-5-5-|
|--9--9--9--9--9--9--9--9-11-11-11-11-11-11-11-11-5-5-5-5-5-5-5-5-5-5-5-5-5-5-5-5-|

|-----------------------------------------------------------------|
|-----------------------------------------------------------------|
|-9-9-9-9-9-9-9-9-5-5-5-5-5-5-5-5-3-3-3-3-3-3-3-3-2-2-2-2-2-2-2-2-|
|-7-7-7-7-7-7-7-7-3-3-3-3-3-3-3-3-1-1-1-1-1-1-1-1-0-0-0-0-0-0-0-0-|
|-7-7-7-7-7-7-7-7-3-3-3-3-3-3-3-3-1-1-1-1-1-1-1-1-0-0-0-0-0-0-0-0-|
|-7-7-7-7-7-7-7-7-3-3-3-3-3-3-3-3-1-1-1-1-1-1-1-1-0-0-0-0-0-0-0-0-|

Chorus
|-----------------------------------------------------------------------|
|-----------------------------------------------------------------------|
|-------11-11-9-9-11-----11-11-10-9-9-8-------9-9-7-7-9-----------5-5-7-|
|-9-9-9--------------9-9----------------7-7-7-----------5-5-5-5-5-------|
|-9-9-9--------------9-9----------------7-7-7-----------5-5-5-5-5-------|
|-9-9-9--------------9-9----------------7-7-7-----------5-5-5-5-5-------|

|-------------------------------------------------------------|
|-------------------------------------------------------------|
|-------------------------------------------------------------|
|-9-9-9-9-9-9-9-9-9-9-9-9-9-9-9-9-7-7-7-7-7-7-7-7-5-5--5--5-5-|
|-9-9-9-9-9-9-9-9-9-9-9-9-9-9-9-9-7-7-7-7-7-7-7-7-5-5--5--5-5-|
|-9-9-9-9-9-9-9-9-9-9-9-9-9-9-9-9-7-7-7-7-7-7-7-7-5-5--5--5-5-|

Pre Bridge Pt. 1 (Palm-Muted)
|--------------------------|
|--------------------------|
|--------------------------|
|-----7--------7-7-7-7-7-7-|
|--------------------------|
|-4-4---4-4--4-------------|

Pre Bridge Pt. 2
|--------------------------|
|--------------------------|
|--------------------------|
|-4-4-7-4-4--4-7-7-7-7-7-7-|
|-4-4-4-4-4--4-4-4-4-4-4-4-|
|-4-4-4-4-4--4-4-4-4-4-4-4-|

Bridge
|-----------------------------------------------------------------|
|-----------------------------------------------------------------|
|-----------------------------------------------------------------|
|-7-7-7-7-7-7-7-7-3-3-3-3-3-3-3-3-5-5-5-5-5-5-5-5-9-9-9-9-9-9-9-9-|
|-7-7-7-7-7-7-7-7-3-3-3-3-3-3-3-3-5-5-5-5-5-5-5-5-9-9-9-9-9-9-9-9-|
|-7-7-7-7-7-7-7-7-3-3-3-3-3-3-3-3-5-5-5-5-5-5-5-5-9-9-9-9-9-9-9-9-|

|-----------------------------------------------------------------------------------------------|
|-----------------------------------------------------------------------------------------------|
|-----------------------------------------------------------------------------------------------|
|11-11-11-11-11-11-11-11-11-11-11-11-11-11-11-11-13-13-13-13-13-13-13-13-13-13-13-13-13-13-13-13|
|11-11-11-11-11-11-11-11-11-11-11-11-11-11-11-11-13-13-13-13-13-13-13-13-13-13-13-13-13-13-13-13|
|11-11-11-11-11-11-11-11-11-11-11-11-11-11-11-11-13-13-13-13-13-13-13-13-13-13-13-13-13-13-13-13|
Добавлено: 05.06.2013
Другие материалы по этой песне:
  • Аккорды и текст

Страница создана 17.05.2012
http://primanota.ru/smile-empty-soul/disease-chords.htm
Привет, Гость.
Предлагаем пройти революционный курс по гитаре.
Подарок от PrimaNota.Ru, забирай!