PrimaNota.ru - самый крупный в мире бесплатный архив песенных текстов, аккордов, табулатур и нот


Slayer - Beauty Through Order - текст песни, таба, видео

Регистрация Запомнить меня
Войти через:  Facebook Google Twitter Vk Yandex Mail.ru

Slayer - Beauty Through Order - текст песни, таба, видео

Печатать
Просмотров: 189
Slayer
Beauty Through Order
World Painted Blood

This is my first tab, hope you like it. I will get solo later if I can tab it

     Intro
Eb|-------------------------------------------------------------|
Bb|-------------------------------------------------------------|
Gb|-------------------------------------------------------------|
Db|-------------------------------------------------------------|
Ab|-2--2--2-1-2-5-5-5-5-5-5-5-5-4-4-4-4-4-4-4-4-3-3-3-3-3-3-3-3-|
Eb|-0--0--0-0-0-0-0-0-0-0-0-0-0-0-0-0-0-0-0-0-0-0-0-0-0-0-0-0-0-|


Eb|-------------------------------------------------------------|
Bb|-------------------------------------------------------------|
Gb|-------------------------------------------------------------|
Db|-2--2--5-4-5-9-9-9-9-9-9-9-9-8-8-8-8-8-8-8-8-7-7-7-7-7-7-7-7-|
Ab|-------------------------------------------------------------|
Eb|-0--0--0-0-0-0-0-0-0-0-0-0-0-0-0-0-0-0-0-0-0-0-0-0-0-0-0-0-0-|


Eb|-------------------------------------------------------------|
Bb|-------------------------------------------------------------|
Gb|-------------------------------------------------------------|
Db|---------------------------4-5-------------------------------|
Ab|-2-5-4-2-7-5-2-5-7-2-8-6-2-----------------------------------|
Eb|-0-3-2-0-5-3-0-3-5-0-6-5-0-----------------------------------|


Eb|-------------------------------------------------------------|
Bb|-------------------------------------------------------------|
Gb|--101010-9-9-9---------101010-9-9-9-9-9----------------------|
Db|--8-8-8--7-7-7---------8-8-8--7-7-7-7-7----------------------|
Ab|-------------------------------------------------------------|
Eb|---------------0-0-0-0------------------0-0-0----------------|

     1st solo rhytm
Eb|-------------------------------------------------------------|
Bb|-------------------------------------------------------------|
Gb|-------------------------------------------------------------|
Db|-54-------------54----55555--54-------------54----88888------|
Ab|-------------------------------------------------------------|
Eb|----000000000000---000----------000000000000---000-----------|

     After solo starts this                   I haven't calculated how many times this 
comes here

Eb|-------------------------------------------------------------|
Bb|-------------------------------------------------------------|
Gb|-------------------------------------------------------------|
Db|-4--5-3-4-7--10----------------------------------------------|
Ab|-------------------------------------------------------------|
Eb|-2--3-1-2-5--6---0-0-0-0-0-0-0-0-0-0-0-0-0-0-0-0-0-0-0-0-0-0-|

     Guitar 1
Eb|-------------------------------------------------------------|
Bb|-------------------------------------------------------------|
Gb|-------------------------------------------------------------|
Db|-------5-8-7-------------------------5-8-7-------------------|
Ab|-------------8-7---------------------------8-7---------------|
Eb|-0-0-0-----------0-0-0-0-0-0-0-0-0-0-----------0-0-0-0-0-0-0-|

     Guitar 2
Eb|--------------------------------------------------------------------|
Bb|--------------------------------------------------------------------|
Gb|------------------------------9-------------------------------9-----|
Db|----------------------5-8-7-5-------------------------5-8-7-5-------|
Ab|--------------------------------------------------------------------|
Eb|-0-0-0-0-0-0-0-0-0-0-0----------0-0-0-0-0-0-0-0-0-0-0---------------|


Eb|-------------------------------------------------------------------|
Bb|-------------------------------------------------------------------|
Gb|-------------------------------------------------------------------|
Db|-------5-8-7---------------------------5-8-7-----------------------|
Ab|-------------8-7-----------------------------8-7-------------------|
Eb|-0-0-0-----------0-0-0-0-11-1-11-1-0-0-0---------0-0-0-0-33-3-33-3-|


Eb|-------------------------------------------------------------|
Bb|-------------------------------------------------------------|
Gb|-------------------------------------------------------------|
Db|-12-11-----7-6-----10-9-----7-6----12-11-----7-6-------------|
Ab|-10-9------5-4-----8--7-----5-4----10-9------5-4-------------|
Eb|-------0-0-----0-0------0-0-----0-0------0-0-----0-0---------|

     2nd solo rhytm
Eb|------------------------------------------------------------------|
Bb|------------------------------------------------------------------|
Gb|------------------------------------------------------------------|
Db|------------------------------------------------------------------|
Ab|------------------------------------------------------------------|
Eb|-2222223200000000222222223333666622222232000000002222222233336666-|
Добавлено: 20.09.2013
Другие материалы по этой песне:
  • Аккорды и текст

Страница создана 20.09.2013
http://primanota.ru/slayer/beauty-through-order-chords.htm
Привет, Гость.
Предлагаем пройти революционный курс по гитаре.
Подарок от PrimaNota.Ru, забирай!