PrimaNota.ru - самый крупный в мире бесплатный архив песенных текстов, аккордов, табулатур и нот


Slayer - Pay - таба, видео

Регистрация Запомнить меня
Войти через:  Facebook Google Twitter Vk Yandex Mail.ru

Slayer - Pay - таба, видео

Печатать
Просмотров: 72
Title: payback
Artist: Slayer
Album: god hates us all
Transcribed by: Rudy Guzman
E-mail: guzman_84@hotmail.com

INTRO:

B:---------------------------------------|
F#:---------------------------------------|
D:---------------------------------------|
A:---------------------------------------|
E:-2--------3--------4--------4-5--2-3-3-|
B:-0-000000-1-000000-2-000000-2-3--0-1-1-|


   repeat            ending
:-----------------|---------------|-----------------|
:-----------------|---------------|-----------------|
:-----------------|---------------|-----------------|
:-----------------|---------------|-----------------|
:---4-5--2-3-3--5-|-2-3--7~~~-(7)-|-----------------|
:---2-3--0-1-1--3-|-0-1--5~~~-(5)-|-320-320-320-320-|

  verse
:----------------------------------------------------------------------------|
:----------------------------------------------------------------------------|
:----------------------------------------------------------------------------|
:----------------------------------------------------------------------------|
:-2--------666666---------666666-555555---------3333333--------666-----------|
:-0-000000-444444-0000000-444444-333333-0000000-1111111-000000-444444-33333--|


    repeat
:------------------|
:------------------|
:------------------|
:------------------|
:------------------|
:--00000-3-2-0-2-0-|



:-------------------------|
:-------------------------|
:-------------------------|
:-------------------------|
:-------------1111-000000-|
:-000000-3333-------------|



:---------------------------------------|
:---------------------------------------|
:---------------------------------------|
:---------------------------------------|
:-2--------3--------4--------4-5--2-3-3-|
:-0-000000-1-000000-2-000000-2-3--0-1-1-|


   repeat            ending
:-----------------|---------------|-----------------|
:-----------------|---------------|-----------------|
:-----------------|---------------|-----------------|
:-----------------|---------------|-----------------|
:---4-5--2-3-3--5-|-2-3--7~~~-(7)-|-----------------|
:---2-3--0-1-1--3-|-0-1--5~~~-(5)-|-320-320-320-320-|

  verse
:----------------------------------------------------------------------------|
:----------------------------------------------------------------------------|
:----------------------------------------------------------------------------|
:----------------------------------------------------------------------------|
:-2--------666666---------666666-555555---------3333333--------666-----------|
:-0-000000-444444-0000000-444444-333333-0000000-1111111-000000-444444-33333--|


    repeat
:------------------|
:------------------|
:------------------|
:------------------|
:------------------|
:--00000-3-2-0-2-0-|



:-------------------------|
:-------------------------|
:-------------------------|
:-------------------------|
:-------------1111-000000-|
:-000000-3333-------------|


:---------------------------------------|
:---------------------------------------|
:---------------------------------------|
:---------------------------------------|
:-2--------3--------4--------4-5--2-3-3-|
:-0-000000-1-000000-2-000000-2-3--0-1-1-|


   repeat            ending
:-----------------|---------------|-----------------|
:-----------------|---------------|-----------------|
:-----------------|---------------|-----------------|
:-----------------|---------------|-----------------|
:---4-5--2-3-3--5-|-2-3--7~~~-(7)-|-----------------|
:---2-3--0-1-1--3-|-0-1--5~~~-(5)-|-320-320-320-320-|


:--------------------------------------|
:--------------------------------------|
:--------------------------------------|
:--------------------------------------|
:-2--------3--------4---4---6--5--2--4-|
:-0-000000-1-000000-2-0-2-0-4--3--0--2-|


:-----------------------------------------|
:-----------------------------------------|
:-----------------------------------------|
:-----------------------------------------|
:-2--------3--------4---4---6--5--2--4----|
:-0-000000-1-000000-2-0-2-0-4--3--0--2-0h2|


:--------------------------------------|
:--------------------------------------|
:--------------------------------------|
:--------------------------------------|
:-2--------3--------4---4---6--5--2--4-|
:-0-000000-1-000000-2-0-2-0-4--3--0--2-|


   solo
                    bar  wah
|-19b--19b--19b--------------------------------------------------------------|
|-23b-------23b----0------13p12-10p0h12h13p0--11h13p0h12h13p011h13p0h12h13p0-|
|----------------------------------------------------------------------------|
|----------------------------------------------------------------------------|
|----------------------------------------------------------------------------|
|----------------------------------------------------------------------------|


|-------------------------------------------------------------------------|
|0-10-12p0-10-12p0-11-13p0-12-14p0-13-15p0-14-16p0-15-17p0-15-18p017-19p0-|
|-------------------------------------------------------------------------|
|-------------------------------------------------------------------------|
|-------------------------------------------------------------------------|
|-------------------------------------------------------------------------|

               repeat
|--15/-----|-18-20-23--|--24\------|
|----------|-----------|-----------|
|----------|-----------|-----------|
|----------|-----------|-----------|
|----------|-----------|-----------|
|----------|-----------|-----------|



:-------------------------|
:-------------------------|
:-------------------------|
:-------------------------|
:-------------1111-000000-|
:-000000-3333-------------|



B:---------------------------------------|
F#:---------------------------------------|
D:---------------------------------------|
A:---------------------------------------|
E:-2--------3--------4--------4-5--2-3-3-|
B:-0-000000-1-000000-2-000000-2-3--0-1-1-|


   repeat            ending
:-----------------|---------------|-----------------|
:-----------------|---------------|-----------------|
:-----------------|---------------|-----------------|
:-----------------|---------------|-----------------|
:---4-5--2-3-3--5-|-2-3--7~~~-(7)-|-----------------|
:---2-3--0-1-1--3-|-0-1--5~~~-(5)-|-320-320-320-320-|



|-------------------------|----------------------------------------------|
|-------------------------|----------------------------------------------|
|-------------------------|----------------------------------------------|
|-------------------------|----------------------------------------------|
|-4--6--2--4--6-----------|--4--6--2--4--6-------------------------------|
|-2--4--0--2--4-000000000-|--2--4--0--2--4-------------------------------|




     
Добавлено: 02.10.2013
Другие материалы по этой песне:
  • Аккорды и текст

Страница создана 24.09.2013
http://primanota.ru/slayer/pay-chords.htm
Привет, Гость.
Предлагаем пройти революционный курс по гитаре.
Подарок от PrimaNota.Ru, забирай!