PrimaNota.ru - самый крупный в мире бесплатный архив песенных текстов, аккордов, табулатур и нот


Slayer - Christ Illusion - таба, видео

Регистрация Запомнить меня
Войти через:  Facebook Google Twitter Vk Yandex Mail.ru

Slayer - Christ Illusion - таба, видео

Печатать
Просмотров: 91
Album: Christ Illusion
1. Flesh Storm
2. Catalyst
3. Eyes of the Insane
4. Jihad
5. Skeleton Christ
7. Catatonic
9. Cult
10. Supremist


Slayer - flesh storm
Tuning: Eb Ab Db Gb Bb eb



Figure A1: 5x

2/4          4/4
|-----------|--------------------------------------|----------------------------------||
|-----------|--------------------------------------|----------------------------------||
|-----------|--------------------------------------|---------------------------------*||
|--6s5---3--|--------------------------------------|----3--------------5-------------*||
|--6s5-2-3--|--------------------------------------|----3--------------5--------------||
|--4s3-0-1--|--0-0-0-0-0-0-0-0-0-0-0-0-0-0-0-0-0---|----1-0-0-0-0-0----3-0-0-0-0-0----||

Figure A2

2/4          4/4
|-----------|--------------------------------------|---------------------------------|
|-----------|--------------------------------------|---------------------------------|
|-----------|--------------------------------------|---------------------------------|
|--6s5---3--|--------------------------------------|--3---------------5-2-3-5-6------|
|--6s5-2-3--|--------------------------------------|--3---------------5-2-3-5-6------|
|--4s3-0-1--|--0-0-0-0-0-0-0-0-0-0-0-0-0-0-0-0-0---|--1-0-0-0-0-0-----3-0-1-3-4------|


Figure B1

|-----------------------------------|-----------------------------------|
|-----------------------------------|-----------------------------------|
|-----------------------------------|-----------------------------------|
|-----------------------------------|-----------------------------------|
|-----------------------------------|-----------------------------------|
|--1-1-1-1-1-1-1-0-1-1-1-1-1-1-1-0--|--1-1-1-1-1-1-1-1-2-2-2-2-2-2-2-2--|



|-----------------------------------|-----------------------------------|
|-----------------------------------|-----------------------------------|
|-----------------------------------|-----------------------------------|
|-----------------------------------|-----------------------------------|
|-----------------------------------|-----------------------------------|
|--1-1-1-1-1-1-1-0-1-1-1-1-1-1-1-0--|--1-1-1-1-1-1-1-1-3-3-3-3-3-3-3-3--|



|-----------------------------------|-----------------------------------|
|-----------------------------------|-----------------------------------|
|-----------------------------------|-----------------------------------|
|-----------------------------------|-----------------------------------|
|-----------------------------------|-----------------------------------|
|--1-1-1-1-1-1-1-0-1-1-1-1-1-1-1-0--|--1-1-1-1-1-1-1-1-2-2-2-2-2-2-2-2--|



|-----------------------------------|---------------------------|
|-----------------------------------|---------------------------|
|-----------------------------------|-------------5------4------|
|-----------------------------------|--3----6-----5------4------|
|-----------------------------------|--3----6-----3------2------|
|--1-1-1-1-1-1-1-0-1-1-1-1-1-1-1-0--|--1----4-------------------|



|-----------------------------------|-----------------------------------|
|-----------------------------------|-----------------------------------|
|-----------------------------------|-----------------------------------|
|-----------------------------------|-----------------------------------|
|-----------------------------------|-----------------------------------|
|--3-3-3-3-3-3-6-4-3-3-3-3-3-3-6-4--|--3-3-3-3-3-3-4-3-4-4-4-4-4-4-4-4--|



|-----------------------------------|-----------------------|
|-----------------------------------|-----------------------|
|-----------------------------------|------------5----4-----|
|-----------------------------------|--5----6----5----4-----|
|-----------------------------------|--5----6----3----2-----|
|--3-3-3-3-3-3-6-4-3-3-3-3-3-3-6-4--|--3----4---------------|



|-----------------------------------|-----------------------------------|
|-----------------------------------|-----------------------------------|
|-----------------------------------|-----------------------------------|
|-----------------------------------|-----------------------------------|
|-----------------------------------|-----------------------------------|
|--3-3-3-3-3-3-6-4-3-3-3-3-3-3-6-4--|--3-3-3-3-3-3-4-3-4-4-4-4-4-4-4-4--|



|-----------------------------------|-----------------------------------|
|-----------------------------------|-----------------------------------|
|-----------------------------------|-----------------------------------|
|-----------------------------------|--5-----6------5------6------------|
|-----------------------------------|--5-----6------5------6------------|
|--3-3-3-3-3-3-6-4-3-3-3-3-3-3-6-4--|--3-----4------3------4------------|

Figure A2

|-----------------------------------|-----------------------------------|
|-----------------------------------|-----------------------------------|
|-----------------------------------|-----------------------------------|
|-----------------------------------|-----------------------------------|
|-----------------------------------|-----------------------------------|
|--1-1-1-1-1-1-1-0-1-1-1-1-1-1-1-0--|--1-1-1-1-1-1-1-1-2-2-2-2-2-2-2-2--|



|-----------------------------------|----------------------|
|-----------------------------------|----------------------|
|-----------------------------------|----------------------|
|-----------------------------------|--3----6----5----2----|
|-----------------------------------|--3----6----5----2----|
|--1-1-1-1-1-1-1-0-1-1-1-1-1-1-1-0--|--1----4----3----0----|



|-----------------------------------|-----------------------------------|
|-----------------------------------|-----------------------------------|
|-----------------------------------|-----------------------------------|
|-----------------------------------|-----------------------------------|
|-----------------------------------|-----------------------------------|
|--1-1-1-1-1-1-1-0-1-1-1-1-1-1-1-0--|--1-1-1-1-1-1-1-1-3-3-3-3-3-3-3-3--|



|-----------------------------------|-----------------------------------|
|-----------------------------------|-----------------------------------|
|-----------------------------------|-----------------------------------|
|-----------------------------------|--3------6------5------3-----------|
|-----------------------------------|--3------6------5------3-----------|
|--1-1-1-1-1-1-1-0-1-1-1-1-1-1-1-0--|--1------4------3------1-----------|

Figure D1                            __________________________________
                                     |1
|---------------------------------|----------------------------------||
|---------------------------------|----------------------------------||
|*-----------------------------0--|----------------------------1----*||
|*---------2----------2--2h3-2----|----------2----------2--2h3---3--*||
|----------2----------2-----------|----------2----------2------------||
|--0-0-0-0-0--0-0-0-0-0-----------|--0-0-0-0-0--0-0-0-0-0------------||

________________________________
|2
|------------------------------|
|------------------------------|
|------------------------------|
|----------2----------2--3--2--|
|----------2----------2--3--2--|
|--0-0-0-0-0--0-0-0-0-0--1--0--|

Figure D2                             _____________________________________
                                      |1
|------------------------------------|-------------------------------------|
|------------------------------------|-------------------------------------|
|*--------------------------------0--|-------------------------------1----*|
|*--------------------------2h3-2----|---------------------------2h3---3--*|
|------------------------------------|-------------------------------------|
|--0-0-0-0-0-0-0-0-0-0-0-0-----------|--0-0-0-0-0-0-0-0-0-0-0-0------------|

________________________________Guitar solo
|2                               W/Figure A1
|------------------------------|-----------------------------------|
|------------------------------|---------------12--12-12-12-12-12--|
|------------------------------|-----------------------------------|
|----------2----------2--3--2--|-----------------------------------|
|----------2----------2--3--2--|-----------------------------------|
|--0-0-0-0-0--0-0-0-0-0--1--0--|-----------------------------------|



|--12------------------14------------------|--15-------------------------------------------|
|------12-12-12-12-12------12-12-12-12-12--|------12-12-12-12-12--13-13-13-13-13-13-13-13--|
|------------------------------------------|-----------------------------------------------|
|------------------------------------------|-----------------------------------------------|
|------------------------------------------|-----------------------------------------------|
|------------------------------------------|-----------------------------------------------|



|---------------19--16-15-----------|--18--16-15------------------------------|
|--13-------20------------18-16-15--|------------18-16-15--16-18-16-15--------|
|-----------------------------------|----------------------------------17-15--|
|-----------------------------------|-----------------------------------------|
|-----------------------------------|-----------------------------------------|
|-----------------------------------|-----------------------------------------|



|----------------------------------------|-----------------------------------------|
|----------------------------------------|-----------------------------------------|
|--14-15-17-14-15-17--17-15-14-----------|-----------------------------------------|
|------------------------------17-14-15--|-----------------------------------------|
|----------------------------------------|--17-14-15--14-12-10---------------------|
|----------------------------------------|----------------------12-13-15-12-13-15--|


                                                             full
|---------------------------------------|---------------------------|--15-17-18--|
|---------------------------------------|--------------------13-----|------------|
|---------------------------------------|--14-15-17-14-15-17-15bu---|------------|
|--------------------12-13-16-12-13-16--|---------------------------|------------|
|--12-13-15-12-13-15--------------------|---------------------------|------------|
|---------------------------------------|---------------------------|------------|



Figure B1

|-----------------------------------|-----------------------------------|
|-----------------------------------|-----------------------------------|
|-----------------------------------|-----------------------------------|
|-----------------------------------|-----------------------------------|
|-----------------------------------|-----------------------------------|
|--1-1-1-1-1-1-1-0-1-1-1-1-1-1-1-0--|--1-1-1-1-1-1-1-1-2-2-2-2-2-2-2-2--|



|-----------------------------------|-----------------------------------|
|-----------------------------------|-----------------------------------|
|-----------------------------------|-----------------------------------|
|-----------------------------------|-----------------------------------|
|-----------------------------------|-----------------------------------|
|--1-1-1-1-1-1-1-0-1-1-1-1-1-1-1-0--|--1-1-1-1-1-1-1-1-3-3-3-3-3-3-3-3--|



|-----------------------------------|-----------------------------------|
|-----------------------------------|-----------------------------------|
|-----------------------------------|-----------------------------------|
|-----------------------------------|-----------------------------------|
|-----------------------------------|-----------------------------------|
|--1-1-1-1-1-1-1-0-1-1-1-1-1-1-1-0--|--1-1-1-1-1-1-1-1-2-2-2-2-2-2-2-2--|



|-----------------------------------|---------------------------|
|-----------------------------------|---------------------------|
|-----------------------------------|-------------5------4------|
|-----------------------------------|--3----6-----5------4------|
|-----------------------------------|--3----6-----3------2------|
|--1-1-1-1-1-1-1-0-1-1-1-1-1-1-1-0--|--1----4-------------------|



|-----------------------------------|-----------------------------------|
|-----------------------------------|-----------------------------------|
|-----------------------------------|-----------------------------------|
|-----------------------------------|-----------------------------------|
|-----------------------------------|-----------------------------------|
|--3-3-3-3-3-3-6-4-3-3-3-3-3-3-6-4--|--3-3-3-3-3-3-4-3-4-4-4-4-4-4-4-4--|



|-----------------------------------|-----------------------|
|-----------------------------------|-----------------------|
|-----------------------------------|------------5----4-----|
|-----------------------------------|--5----6----5----4-----|
|-----------------------------------|--5----6----3----2-----|
|--3-3-3-3-3-3-6-4-3-3-3-3-3-3-6-4--|--3----4---------------|



|-----------------------------------|-----------------------------------|
|-----------------------------------|-----------------------------------|
|-----------------------------------|-----------------------------------|
|-----------------------------------|-----------------------------------|
|-----------------------------------|-----------------------------------|
|--3-3-3-3-3-3-6-4-3-3-3-3-3-3-6-4--|--3-3-3-3-3-3-4-3-4-4-4-4-4-4-4-4--|



|-----------------------------------|-----------------------------------|
|-----------------------------------|-----------------------------------|
|-----------------------------------|-----------------------------------|
|-----------------------------------|--5-----6------5------6------------|
|-----------------------------------|--5-----6------5------6------------|
|--3-3-3-3-3-3-6-4-3-3-3-3-3-3-6-4--|--3-----4------3------4------------|

Figure A2

|-----------------------------------|-----------------------------------|
|-----------------------------------|-----------------------------------|
|-----------------------------------|-----------------------------------|
|-----------------------------------|-----------------------------------|
|-----------------------------------|-----------------------------------|
|--1-1-1-1-1-1-1-0-1-1-1-1-1-1-1-0--|--1-1-1-1-1-1-1-1-2-2-2-2-2-2-2-2--|



|-----------------------------------|----------------------|
|-----------------------------------|----------------------|
|-----------------------------------|----------------------|
|-----------------------------------|--3----6----5----2----|
|-----------------------------------|--3----6----5----2----|
|--1-1-1-1-1-1-1-0-1-1-1-1-1-1-1-0--|--1----4----3----0----|



|-----------------------------------|-----------------------------------|
|-----------------------------------|-----------------------------------|
|-----------------------------------|-----------------------------------|
|-----------------------------------|-----------------------------------|
|-----------------------------------|-----------------------------------|
|--1-1-1-1-1-1-1-0-1-1-1-1-1-1-1-0--|--1-1-1-1-1-1-1-1-3-3-3-3-3-3-3-3--|



|-----------------------------------|-----------------------------------|
|-----------------------------------|-----------------------------------|
|-----------------------------------|-----------------------------------|
|-----------------------------------|--3------6------5------3-----------|
|-----------------------------------|--3------6------5------3-----------|
|--1-1-1-1-1-1-1-0-1-1-1-1-1-1-1-0--|--1------4------3------1-----------|


Figure D1                            __________________________________
                                     |1
|---------------------------------|----------------------------------||
|---------------------------------|----------------------------------||
|*-----------------------------0--|----------------------------1----*||
|*---------2----------2--2h3-2----|----------2----------2--2h3---3--*||
|----------2----------2-----------|----------2----------2------------||
|--0-0-0-0-0--0-0-0-0-0-----------|--0-0-0-0-0--0-0-0-0-0------------||

________________________________
|2
|------------------------------|
|------------------------------|
|------------------------------|
|----------2----------2--3--2--|
|----------2----------2--3--2--|
|--0-0-0-0-0--0-0-0-0-0--1--0--|



Figure D2                             _____________________________________
                                      |1
|------------------------------------|-------------------------------------||
|------------------------------------|-------------------------------------||
|*--------------------------------0--|-------------------------------1----*||
|*--------------------------2h3-2----|---------------------------2h3---3--*||
|------------------------------------|-------------------------------------||
|--0-0-0-0-0-0-0-0-0-0-0-0-----------|--0-0-0-0-0-0-0-0-0-0-0-0------------||

________________________________
|2
|------------------------------|
|------------------------------|
|------------------------------|
|----------2----------2--3--6--|
|----------2----------2--3--6--|
|--0-0-0-0-0--0-0-0-0-0--1--4--|

Figue E1: 5x

|-----------------------------------|-----------------------------------|
|-----------------------------------|-----------------------------------|
|-----------------------------------|-----------------------------------|
|----2-2-2-6s2-2-2---2-2-2-2-2-2-2--|----2-2-2-6s2-2-2-5-8-8-8-8-8-8-8--|
|----2-2-2-6s2-2-2---2-2-2-2-2-2-2--|----2-2-2-6s2-2-2-5-8-8-8-8-8-8-8--|
|--3p0-0-0-4s0-0-0-3p0-0-0-0-0-0-0--|--3p0-0-0-4s0-0-0-3-6-6-6-6-6-6-6--|



|----------------------------|---------------------------------|
|----------------------------|---------------------------------|
|----------------------------|---------------------------------|
|--8-8-8-8-8-8-8-8--6s5-2-3--|--2------------------------------|
|--8-8-8-8-8-8-8-8--6s5-2-3--|--2------------------------------|
|--6-6-6-6-6-6-6-6--4s3-0-1--|--0-0-0-0-0-0-0-0-0-0-0-0-0-0-0--|



|----------------------------|
|----------------------------|
|----------------------------|
|---3-----------5------------|
|---3-----------5------------|
|---1-0-0-0-0-0-3-0-0-0-0-0--|

Solo 2

   Full    Full      Full  Full
|--19------13-----|--19----19-----|--24-19-22-19-21-19-24-19-22-19-21-19--|
|--22bu----22bu---|--22bu--22bu---|---------------------------------------|
|-----------------|---------------|---------------------------------------|
|-----------------|---------------|---------------------------------------|
|-----------------|---------------|---------------------------------------|
|-----------------|---------------|---------------------------------------|


                                     W/bar
|--24-19-22-19-21-19-24-19-22-19----|------|-------|---------------------------------|
|-----------------------------------|------|-------|---------------------------------|
|-----------------------------------|------|-------|---------------------------------|
|-----------------------------------|------|-------|-----------------------12--------|
|-----------------------------------|------|-------|--12-14-15-12-14-14-15----14-15--|
|-----------------------------------|--0---|--(0)--|---------------------------------|


                                                                               Full
|----------------------------------|--------------12----13-12---|--15-13-17-15-19bu-19-17--|
|----------------------------------|--13-12-15-13----15---------|--------------------------|
|---------------12----14-12-16-14--|----------------------------|--------------------------|
|------12-14-15----15--------------|----------------------------|--------------------------|
|14-15-----------------------------|----------------------------|--------------------------|
|----------------------------------|----------------------------|--------------------------|


   Full       Full           Full           Full        Full         Full       Full
|--19bu-19-17---------|------19bu-19-17--|--19bu-19-17--------|--------------|--15----|
|-------------20bu----|------------------|--------------18bu--|------18bu----|--18bu--|
|---------------------|------------------|--------------------|--------------|--------|
|---------------------|------------------|--------------------|--------------|--------|
|---------------------|------------------|--------------------|--------------|--------|
|---------------------|------------------|--------------------|--------------|--------|


   Full
|--18bu--18--|--18-17-15-15--------------------------|---------|--s20-20-20-20-20-20-20-20--|
|------------|--------------18-16-15-----------------|---------|----------------------------|
|------------|-----------------------17-15-14--------|---------|----------------------------|
|------------|--------------------------------17-15--|---------|----------------------------|
|------------|---------------------------------------|--15s----|----------------------------|
|------------|---------------------------------------|---------|----------------------------|

             w/bar    w/bar
             P.H      N.H
|--20-----|--------|--------|-----------------------|----------------------------|
|---------|--------|--------|-----------------------|----------------------------|
|---------|--0-----|--3---s-|----0h3-5h6p5p0-5p3p0--|--5p1p0-5p3p0-6p3p0-9p0h6s--|
|---------|--------|--------|-----------------------|----------------------------|
|---------|--------|--------|-----------------------|----------------------------|
|---------|--------|--------|-----------------------|----------------------------|


   +             +
|--------------------------|--------------------13-15-16-17-19---|--20--------|
|--------------------------|-----------13-15-16------------------|------------|
|--s------s------s------s--|--12-14-15---------------------------|------------|
|--------------------------|-------------------------------------|------------|
|--------------------------|-------------------------------------|------------|
|--------------------------|-------------------------------------|------------|




----------------------------------|
----------------------------------|
----------------------------------|
-------------------------6--------|
-----------------7-8-5-8---8-7-8--|
-0-0-0-0-0-0-0-0------------------|



|------------------------------------|------------------
|------------------------------------|------------------
|---------------------------5--------|------------------
|-------------------6-7--------------|------------------
|-----------------------8-7---8-7-8--|------------------
|--0-0-0-0-0-0-0-0-------------------|--0-0-0-0-0-0-0-0-



-----------------|---------------------------------|-----------------
-----------------|---------------------------------|-----------------
-----------------|---------10--9-----------5-------|-----------------
---------6-------|---------10--9---6-7-------------|-----------------
-7-8-5-8---8-7-8-|----------8--7-------8-7---8-7-8-|-----------------
-----------------|-0-0-0-0-------------------------|-0-0-0-0-0-0-0-0-



-----------------|----------------------------------|-----------------
-----------------|----------------------------------|-----------------
-----------------|--------------------------5-------|-----------------
---------6-------|------------------6-7-------------|-----------------
-7-8-5-8---8-7-8-|----------------------8-7---8-7-8-|-----------------
-----------------|-0-0-0-0-0-0-0-0------------------|-0-0-0-0-0-0-0-0-



-----------------|------------------------------------|
-----------------|------------------------------------|
-----------------|---------10--9----------------------|
---------6-------|---------10--9---6-7----------------|
-7-8-5-8---8-7-8-|----------8--7-------8-7------------|
-----------------|-0-0-0-0-----------------8-7--1-----|

Figure F1: 4x                        Figure F2: 5x

|-----------------------------------||-------------------------------------||
|-----------------------------------||-------------------------------------||
|*---------------------------------*||*-----------------------------------*||
|*-----2-2-2-2-2-2-----2-2-----2-2-*||*-----2-2-------2-2-----2-2-2-2-2-2-*||
|--2---2-2-2-2-2-2-2---2-2-2---2-2--||--2---2-2-------2-2-2---2-2-2-2-2-2--||
|--1p0-0-0-0-0-0-0-1p0-0-0-3p0-0-0--||--3p0-0-0-4p1p0-0-0-3p0-0-0-0-0-0-0--||



|-------------------------------------------|
|-------------------------------------------|
|-------------------------------------------|
|------2-2-------2-2-5-8-8-8-8-8-8-8-8---xs-|
|--2---2-2-------2-2-5-8-8-8-8-8-8-8-8---xs-|
|--3p0-0-0-4p1p0-0-0-3-6-6-6-6-6-6-6-6---xs-|



Figure D1                            __________________________________
                                     |1
|---------------------------------|----------------------------------||
|---------------------------------|----------------------------------||
|*-----------------------------0--|----------------------------1----*||
|*---------2----------2--2h3-2----|----------2----------2--2h3---3--*||
|----------2----------2-----------|----------2----------2------------||
|--0-0-0-0-0--0-0-0-0-0-----------|--0-0-0-0-0--0-0-0-0-0------------||

________________________________
|2
|------------------------------|
|------------------------------|
|------------------------------|
|----------2----------2--3--2--|
|----------2----------2--3--2--|
|--0-0-0-0-0--0-0-0-0-0--1--0--|



Figure D2                             _____________________________________
                                      |1
|------------------------------------|-------------------------------------||
|------------------------------------|-------------------------------------||
|*--------------------------------0--|-------------------------------1----*||
|*--------------------------2h3-2----|---------------------------2h3---3--*||
|------------------------------------|-------------------------------------||
|--0-0-0-0-0-0-0-0-0-0-0-0-----------|--0-0-0-0-0-0-0-0-0-0-0-0------------||

________________________________
|2
|------------------------------|
|------------------------------|
|------------------------------|
|----------2----------2--3--6--|
|----------2----------2--3--6--|
|--0-0-0-0-0--0-0-0-0-0--1--4--|



|-------------|
|-------------|
|-------------|
|--6s5---3-2--|
|--6s5-2-3-2--|
|--4s3-0-1-0--|

Tuning Eb
Catalyst

 RIFF 1A INTO VERSE x1

|KING
|---------------------------|---------------------------|
|---------------------------|---------------------------|
|---------------------------|---------------------------|
|------3--------------------|------3--------------------|
|------1--------6---5---3---|------1--------6-------5---|
|-0000---000000-4---3---1---|-0000---000000-4-00000-3---|
| ....   ......               ....   ......   .....
|
|HANNEMAN
|---------------------------|---------------------------|
|---------------------------|---------------------------|
|---------------------------|---------------------------|
|------3--------------------|------3--------------------|
|------1--------------------|------1--------6-------5---|
|-0000----------------------|-0000----------4-------3---|
  ....  x                     ....  x        x



|BOTH
|---------------------------|---------------------------|
|---------------------------|---------------------------|
|---------------------------|---------------------------|
|------3--------------------|------3--------------------|
|------1--------6---5---3---|------1--------5---4---3---|
|-0000---000000-4---3---1---|-0000---000000-3---2---1---|
  ....   ......               ....   ......



 RIFF 1 VERSE x1

|---------------------------|---------------------------|
|---------------------------|---------------------------|
|---------------------------|---------------------------|
|------3--------------------|------3--------------------|
|------1--------6---5---3---|------1--------5---4---3---|
|-0000---000000-4---3---1---|-0000---000000-3---2---1---|
  ....   ......               ....   ......


|---------------------------|---------------------------|
|---------------------------|---------------------------|
|---------------------------|---------------------------|
|------3--------------------|------3--------------------|
|------1--------6---5---3---|------1--------5---3---5---|
|-0000---000000-4---3---1---|-0000---000000-3---1---3---|
  ....   ......               ....   ......



 RIFF 2 BRIDGE x1

|---------------------------------------------------------------|
|---------------------------------------------------------------|
|---------------------------------------------------------------|
|---------------------------------------------------------------|
|-------------------------------------------------------5---3---|
|-22222-5-22222-3-22222-5-22222-3-22222-5-22222-3-22222-3---1---|
  ..... . ..... . ..... . ..... . ..... . ..... . .....


|---------------------------------------------------------------|
|---------------------------------------------------------------|
|---------------------------------------------------------------|
|---------------------------------------------------------------|
|-------------------------------------------------------5---5---|
|-22222-5-22222-3-22222-5-22222-3-22222-5-22222-3-22222-3---3---|
  ..... . ..... . ..... . ..... . ..... . ..... . .....



 RIFF 3 CHORUS x1

|-----------------|-----------------|-----------------|-----------------|
|-----------------|-----------------|-----------------|-----------------|
|-----------------|-----------------|-----------------|-----------------|
|-----------------|-----------------|-----------------|-----------------|
|---1-----1-------|---2-----1-------|---1-----1-------|---3-2---1-------|
|-0---2-1---2-1-0-|-0---3-2---2-1-0-|-0---2-1---2-1-0-|-0-----3---2-1-0-|
  .   . .           .   . .           .   . .           .


|-----------------|-----------------|-----------------|-----------------|
|-----------------|-----------------|-----------------|-----------------|
|-----------------|-----------------|-----------------|-----------------|
|-----------------|-----------------|-----------------|-----------------|
|---1-----1-------|---2-----1-------|---1-----1-------|---2-----1---3---|
|-0---2-1---2-1-0-|-0---3-2---2-1-0-|-0---2-1---2-1-0-|-0---3-2---2-1---|
  .   . .           .   . .           .   . .           . . . . . .



 SOLO 1 KING
  WAH_____________________________________________________________ WAH & BAR
|-----------------------------------------------151515141414131313------------|
|-888888888888999888999121212121212111111121212-------------------------------|
|-----------------------------------------------------------------------------|
|-----------------------------------------------------------------------------|
|-----------------------------------------------------------------------------|
|------------------------------------------------------------------0//\\\\\---|

  WAH______________________________________________
|---------------------------------------------------16-12h15-17-13h16-|
|---------------------------------------------------------------------|
|-6-3h4-6-3h4-7-4h6-7-4h6-9-6h7-9-6h7-10-7h9-10-7h9-------------------|
|---------------------------------------------------------------------|
|---------------------------------------------------------------------|
|---------------------------------------------------------------------|
  T     T     T     T     T     T      T      T      T        T

|-18-14h17-19-15h18-20-16h19-21-17h20-22-18h21-23-19h22-24b^^^^^\\\\\-----|
|-------------------------------------------------------------------------|
|-------------------------------------------------------------------------|
|-------------------------------------------------------------------------|
|-------------------------------------------------------------------------|
|-------------------------------------------------------------------------|
   T        T        T        T        T        T



 RIFF 1 x1 UNDER SOLO 1

 RIFF 1 VERSE x1


 RIFF 4 BREAK x1

|x3                                 |x1
|-----------------------------------|-----------------------------------|
|-----------------------------------|-----------------------------------|
|--------10---9b^^^-----------------|--------10---9b^^^-----------------|
|--------10-------------------------|--------10-------------------------|
|-----------------------------------|---------------------2-----1---3---|
|-0-0-0-0-------------0-0-0-0-0-0-0-|-0-0-0-0-----------0---3-2---2-1---|
  . . . .             . . . . . . .   . . . .           . . . . . .



 RIFF 2 BRIDGE x1

 RIFF 3 CHORUS x1


 FILL 1

|-----------------|
|-----------------|
|-----------------|
|-----------------|
|---2-----1---3---|
|-0---3-2---2-1---|
  . . . . . .



 RIFF 5 BREAK x1

|-----------------------------------|-----------------------------------|
|-----------------------------------|-----------------------------------|
|-----------------------------------|-----------------------------------|
|-----------------------------------|-----------------------------------|
|-2-2-2-2-3-----2-2-2-2-3-----------|-2-2-2-2-3-----2-2-2-2-3---6---5---|
|-0-0-0-0-1-----0-0-0-0-1-----------|-0-0-0-0-1-----0-0-0-0-1---4---3---|



|-----------------------------------|-----------------------------------|
|-----------------------------------|-----------------------------------|
|-----------------------------------|-----------------------------------|
|-----------------------------------|-----------------------------------|
|-2-2-2-2-3-----2-2-2-2-3-----------|-2-2-2-2-3-----2-2-2-2-6---5---3---|
|-0-0-0-0-1-----0-0-0-0-1-----------|-0-0-0-0-1-----0-0-0-0-4---3---1---|




 SOLO 2 KING
  WAH_______      WAH_______  WAH & BAR WAH_______      WAH____ WHA__ WAH
|---------------------------------------------------------------------2/14b^-|
|-1h2p1h2/5b^^^---1h2p1h2/5b^-0/\\\\\---1h2p1h2/5b^^^---1h2p1h2-1h2h4--------|
|----------------------------------------------------------------------------|
|----------------------------------------------------------------------------|
|----------------------------------------------------------------------------|
|----------------------------------------------------------------------------|

             WAH___________________________________________   WAH____________
|-12b^^^----------------------------------------------------------------------|
|-------------------------------------------------------------14-8h11-14-8h11-|
|------------6-2h5-7-3h6-8-4h7-9-5h8-10-6h9-11-7h10-12-8h11-------------------|
|-----------------------------------------------------------------------------|
|-----------------------------------------------------------------------------|
|-----------------------------------------------------------------------------|
             T     T     T     T      T      T       T         T       T
  WAH____________   WAH________________________________   WAH______________
|---------------------------------------------------------------------------|
|-14-8h11-14-8h11---17-11h14-17-11h14-17-11h14-17-11h14---20-14h17-20-14h17-|
|---------------------------------------------------------------------------|
|---------------------------------------------------------------------------|
|---------------------------------------------------------------------------|
|---------------------------------------------------------------------------|
   T       T         T        T        T        T          T        T
  WAH______________   WAH________________________________
|-----------------------------------------------------------|
|-20-14h17-20-14h17---23-17h20-23-17h20-23-17h20-23-17h20---|
|-----------------------------------------------------------|
|-----------------------------------------------------------|
|-----------------------------------------------------------|
|-----------------------------------------------------------|
   T        T          T        T        T        T

  WAH___________________________________________________________________
|-----------------------------------------------------151515141414131313-|
|-888888888888-9-9-9888-9-9-9121212121212111111121212--------------------|
|-------------101010999101010131313131313121212131313--------------------|
|------------------------------------------------------------------------|
|------------------------------------------------------------------------|
|------------------------------------------------------------------------|

  WAH & BAR     WAH & BAR/\/\/\/\/\/\/\/\ N.H. BAR      N.H. BAR
|-----------------------------------------------------------------------------|
|-----------------------------------------5//\\\\\\\\---3///\/\//\/\/\/\\-----|
|---------------3h4p3p0h4p3p0h4p3p0h4p3p0-5//\\\\\\\\-------------------------|
|-----------------------------------------------------------------------------|
|-----------------------------------------------------------------------------|
|-0//\\\\\\-------------------------------------------------------------------|



 RIFF 5A x1 UNDER SOLO 2

|-----------------------------------|-----------------------------------|
|-----------------------------------|-----------------------------------|
|-----------------------------------|-----------------------------------|
|-----------------------------------|-----------------------------------|
|-4-4-4-4-5-----4-4-4-4-5-----------|-4-4-4-4-5-----4-4-4-4-5---3---4---|
|-2-2-2-2-3-----2-2-2-2-3-----------|-2-2-2-2-3-----2-2-2-2-3---1---2---|



|-----------------------------------|-----------------------------------|
|-----------------------------------|-----------------------------------|
|-----------------------------------|-----------------------------------|
|-----------------------------------|-----------------------------------|
|-4-4-4-4-5-----4-4-4-4-5-----------|-4-4-4-4-5-----4-4-4-4-5---4---3---|
|-2-2-2-2-3-----2-2-2-2-3-----------|-2-2-2-2-3-----2-2-2-2-3---2---1---|




 RIFF 1 x1 UNDER SOLO 2

 RIFF 1 VERSE x1

 RIFF 4 BREAK x2


 RIFF 6 INTERLUDE x2

|x3                                 |x1
|-----------------------------------|-----------------------------------|
|-----------------------------------|-----------------------------------|
|-----------------------------------|-----------------------------------|
|-----------------------------------|-----------------------------------|
|---3/4---3---2---------------------|---3/4---3---2-------2-----1---3---|
|-0-1/2-0-1---0-----0-0-0-0-0-0-0-0-|-0-1/2-0-1---0-----0---3-2---2-1---|
  .     .           . . . . . . . .   . . . .           . . . . . .



 RIFF 2 BRIDGE x1

 RIFF 3 CHORUS x1


 FILL 1


 FILL 2 END

|---------------|
|---------------|
|---------------|
|---------------|
|-2-2-2-2-3-----|
|-0-0-0-0-1-----|
           x


Artist: Slayer
Song: Eyes of the Insane
Album: Christ Illusion
Tuning: Drop B
Legend: * = tremolo picking
        b = bend
        r = release a bend
        pb = bend before plucking
        h = hammer-on
        p = pull-off
        / = slide up
        \ = slide down
        ~ = vibrato
        wd = whammy dive

My favorite song on the album.  Enjoy!

VERSE
Guitar 1
Db|---------------------------------|
Ab|---------------------------------|
E |---------------------------------|
B |---------------------------------|
Gb|---------------------------------|
B |-0-0-0-0-0-0-0-0-0-0-0-0-0-0-0-0-|

Guitar 2
Db|---------------------------------|
Ab|---------------------------------|
E |---------------------------------|
B |-0-0-2---3-----------------------|
Gb|-------------4-4-4-4-4-4-4-4-4-4-|
B |---------------------------------|

PRECHORUS A
Both Guitars
Db|-----------------|
Ab|-----------------|
E |-----------------|
B |-----------------|
Gb|-0-1-4-3-0-1-0-3-|
B |-0-1-4-3-0-1-0-3-|

PRECHORUS B
Both Guitars
Db|-----------------|
Ab|-----------------|
E |-----------------|
B |-----------------|
Gb|-0-1-4-3-0-1-2-1-|
B |-0-1-4-3-0-1-2-1-|

CHORUS A
Both Guitars
Db|-------------|
Ab|-------------|
E |-1-1-1-1-1---|
B |-0-0-0-0-0---|
Gb|-------------|
B |-------------|

CHORUS B
Both Guitars
Db|-----------------|
Ab|-----------------|
E |-1-1-1-1-1-1-1-1-|
B |-0-0-0-0-0-0-0-0-|
Gb|-----------------|
B |-----------------|

FILL
Guitar 1
Db|-----------------|
Ab|-----------------|
E |-----------------|
B |-----------------|
Gb|-----------------|
B |-----------------|

Guitar 2
Db|-----------------|
Ab|-----------------|
E |-----------------|
B |-------0-----2-1-|
Gb|-----0---1-0-----|
B |-0-3-------------|

PRESOLO
Guitar 1
Db|---------------------------------------------------|
Ab|---------------------------------------------------|
E |---------------------------------------------------|
B |---------------------------------------------------|
Gb|-----------------------------------------------0---|
B |-0-0--0-0--0-0--0-0--0--0--0-0--0-0--0-0--0-0--0---|
  PM............................................

Guitar 2
Db|---------------------------------------------------|
Ab|---------------------------------------------------|
E |---------------------------------------------------|
B |---------------------------------------------------|
Gb|----------------------------------------------17wd-|
B |---------------------------------------------------|

SOLO
Guitar 1 (Two separate riffs, figure out when to play them)
Db|------------------------|---------|
Ab|------------------------|---------|
E |------------------------|---------|
B |------------------------|---------|
Gb|---------------------0--|-1---2---|
B |-0-0--0-0--0-0--0-0--0--|-1---2---|
  PM..................

Guitar 2 (Wah, Arranged for one guitar)
Db|-------------------------------17*--16*-----17*--16*-----20b22-pb22~~~-|
Ab|----------------------------------------18*----------18*---------------|
E |-7*---7-10-9*---7-10-7*---7-10-----------------------------------------|
B |-----------------------------------------------------------------------|
Gb|-----------------------------------------------------------------------|
B |-----------------------------------------------------------------------|

-15--19p17p15--16-20p18p16--17-21p19p17--18-22p20p18-22\-|
---------------------------------------------------------|
---------------------------------------------------------|
---------------------------------------------------------|
---------------------------------------------------------|
---------------------------------------------------------|

-19p17p16-------------------------------------------------------------|
----------19p16-19p16-17p16-19p17p16----------------------------------|
-------------------------------------18p16p15-16h18-15-13-14h17-14-13-|
----------------------------------------------------------------------|
----------------------------------------------------------------------|
----------------------------------------------------------------------|

-----------------------------------------------------|
-----------------------------------------------------|
------------------------------------------6-----7--6-|
13-12h13h15-12h13h15-12h13h15-13p12-8--7-----8-------|
-----------------------------------------------------|
-----------------------------------------------------|

----------------------------------------10-11-10----10-11-13-15-16-18-23-23-21b23~~~-|
---------------------9-10-10/13-13-12~~~---------12----------------------------------|
-------------------------------------------------------------------------------------|
-10p7-10p7-10p7-10p7-----------------------------------------------------------------|
-------------------------------------------------------------------------------------|
-------------------------------------------------------------------------------------|

-20p18p17-------------17h18-20p18p17----------------------------------21-------------------|
----------20p17-18h20----------------20p17-18h20-19h21-18h21-22-23-24----24p23p21----------|
----------------------------------------------------------------------------------22h23-23-|
-------------------------------------------------------------------------------------------|
-------------------------------------------------------------------------------------------|
-------------------------------------------------------------------------------------------|

------------------------|
-20b21r20b21r20b21r20---|
-20b21r20b21r20b21r20---|
------------------------|
------------------------|
------------------------|

----------------------------------------------------------------------------------|
-18-15-------------19-16-------------20-17-------------21-18----------------------|
-------18-16-14----------19-17-15----------20-18-16----------21-19-17-------------|
----------------18----------------19----------------20----------------21-21~~~21~-|
----------------------------------------------------------------------------------|
----------------------------------------------------------------------------------|

-16p14p12-16p14p12-17p15p13-18p16p14-19p17p15-20p18p16-21p19p17-21p19p17------|
------------------------------------------------------------------------------|
------------------------------------------------------------------------------|
------------------------------------------------------------------------------|
------------------------------------------------------------------------------|
-------------------------------------------------------------------------12wd-|

SONG ORDER
Verse x8
Prechorus A x4
Verse x8
Prechorus A x4
Prechorus B x4
Chorus A x5
Chorus B
Fill
Prechorus A x4
Prechorus B x4
Chorus A x5
Chorus B
Fill
Presolo
Solo
Chorus A x5
Chorus B
Fill
Verse x8
Prechorus A x4
Prechorus B x4



Slayer - Jihad

Tuning: Eb Ab Db Gb Bb eb

4/4



Riff 1 (intro)

|--------------------------------||
|-----12--12--12--15--15--11-11--||
|--9-----------------------------||
|--------------------------------||
|--------------------------------||
|--------------------------------||
|
|
|
|--------------------------------||
|--------------------------------||
|--------------------------------||
|--------------------------------||
|--------------------------------||
|--0--0--0--0--0--0--0--0--0--0--||

Riff 2 (intro)

|-----12--12--12--15--15--11--11--||
|-----12--12--12--15--15--11--11--||
|--9------------------------------||
|--9------------------------------||
|---------------------------------||
|---------------------------------||
|
|
|
|---------------------------------||
|---------------------------------||
|---------------------------------||
|--2--2--2--2--2--2--2--2--2--2---||
|--2--2--2--2--2--2--2--2--2--2---||
|--0--0--0--0--0--0--0--0--0--0---||

Riff 3 (intro)

|--------------------|----------------------|
|--------------------|----------------------|
|--------------------|----------------------|
|--------------------|---------8------------|
|----7-8-----6-------|--7-9-10---10-9-8-----|
|--0-----9-8---10-6--|------------------10--|



|--------------------|----------------------|
|--------------------|----------------------|
|--------------------|----------------------|
|--------------------|---------9------------|
|----7-8-----6-------|--7-9-10---10-9-------|
|--0-----9-8---10-6--|----------------10-9--|



|-------------------|----------------------|
|-------------------|----------------------|
|-------------------|----------------------|
|-------------------|---------8------------|
|----8-7-----7-6----|--7-9-10---10-9-8-----|
|--0-----9-8-----7--|------------------10--|



|-------------------|-----------------------|
|-------------------|-----------------------|
|-------------------|-----------------------|
|-------------------|---------10------------|
|----8-7-----7-6----|--7-9-10----10-9-------|
|--0-----9-8-----7--|-----------------10-9--|


3/4
|---------------------------|
|---------------------------|
|---------------------------|
|--2---------2-2-------2----|
|--2-2-------2-2-------2----|
|--0-0-0--0--0-0-0--0--0----|

Riff 4 (verse1)

|---------------------------------------------------|
|---------------------------------------------------|
|---------------------------------------------------|
|---2-2-2-2-2-2-2-2-2-2-2-2-2-2-2-2-2-2--2--2--2-2--|
|---2-2-2-2-2-2-2-2-2-2-2-2-2-2-2-2-2-2--2--2--2-2--|
|---0-0-0-0-0-0-0-0-0-0-0-0-0-0-0-0-0-0--0--0--0-0--|

Riff 5 (verse1)

|------------------------------------------------------|
|------------------------------------------------------|
|------------------------------------------------------|
|--5-5-5-5-5-5-5-5-5--5-5-5--5-5-5-5-5-5-5-5-5--5-5-5--|
|--5-5-5-5-5-5-5-5-5--5-5-5--5-5-5-5-5-5-5-5-5--5-5-5--|
|--3-3-3-3-3-3-3-3-3--3-3-3--3-3-3-3-3-3-3-3-3--3-3-3--|

Riff 6 (verse1)

|-------------------------------------------------------------------------------|
|-------------------------------------------------------------------------------|
|-------------------------------------------------------------------------------|
|---5--5--5--5--5--5--5--5--5---5--5--5---5--5--5--5--5--5--5--5--5---5--5--5---|
|---5--5--5--5--5--5--5--5--5---5--5--5---5--5--5--5--5--5--5--5--5---5--5--5---|
|---3--3--3--3--3--3--3--3--3---3--3--3---3--3--3--3--3--3--3--3--3---3--3--3---|
|
|
|
|-------------------------------------------------------------------------------|
|-------------------------------------------------------------------------------|
|-------------------------------------------------------------------------------|
|--11-11-11-11-11-11-11-11-11--11-11-11--11-11-11-11-11-11-11-11-11--11-11-11---|
|--11-11-11-11-11-11-11-11-11--11-11-11--11-11-11-11-11-11-11-11-11--11-11-11---|
|---9--9--9--9--9--9--9--9--9---9--9--9---9--9--9--9--9--9--9--9--9---9--9--9---|

riff 7 (chorus)

|------------------------------------|
|------------------------------------|
|------------------------------------|
|------------------------------------|
|--1-------2-------3--------1--------|
|----3-2-1---3-2-1----3-2-1---3-2-1--|

Riff 8 (verse2)

|----------------------------------------6---|
|------------------------------------8-7-----|
|----------------------------------5---------|
|--2-2-2-2--2-2-2--2-2-2--2-2-2-2------------|
|--2-2-2-2--2-2-2--2-2-2--2-2-2-2------------|
|--0-0-0-0--0-0-0--0-0-0--0-0-0-0------------|

Riff 9 (verse2)

|----------------------------------------6----|
|------------------------------------8-7---8--|
|----------------------------------5----------|
|--2-2-2-2--2-2-2--2-2-2--2-2-2-2-------------|
|--2-2-2-2--2-2-2--2-2-2--2-2-2-2-------------|
|--0-0-0-0--0-0-0--0-0-0--0-0-0-0-------------|

Riff 10

|-----------------------------------|-------------------------|
|-----------------------------------|-------------------------|
|--7\6-6-5-5-5-7-7-7-6-6-6-3---7\6--|--6-5-5-5-7-7-7-6-6-6-3--|
|--7\6-6-5-5-5-7-7-7-6-6-6-3---7\6--|--6-5-5-5-7-7-7-6-6-6-3--|
|--5\4-4-3-3-3-5-5-5-4-4-4-1---5\4--|--4-3-3-3-5-5-5-4-4-4-1--|
|-----------------------------------|-------------------------|

Solo

|--12-14-15-12-14-15-12-14-15-12-14-15--|--15-17-18-15-17-18-15-17-18-15-17-18--|
|---------------------------------------|---------------------------------------|
|---------------------------------------|---------------------------------------|
|---------------------------------------|---------------------------------------|
|---------------------------------------|---------------------------------------|
|---------------------------------------|---------------------------------------|



|--11-12-14-11-12-14-11-12-14-11-12-14--|--12-14-12-----------------|
|---------------------------------------|-----------14-12-11--------|
|---------------------------------------|--------------------14-----|
|---------------------------------------|---------------------------|
|---------------------------------------|---------------------------|
|---------------------------------------|---------------------------|


   1/2                                    1/2                 1
|---------------|--------------|------------------------|---------------/12h15---|
|---------------|--------------|------------------------|------------------------|
|--11bu--11--9--|--8-----------|--9---11--11bu-br--8----|--(8)bu-----------------|
|---------------|------10---9--|------------------------|------------------------|
|---------------|--------------|------------------------|------------------------|
|---------------|--------------|------------------------|------------------------|



|--19-15-17-15-12-15-19-15-17-15-12-15-19-17-15-12-15-19-17-15-12-15--|
|---------------------------------------------------------------------|
|---------------------------------------------------------------------|
|---------------------------------------------------------------------|
|---------------------------------------------------------------------|
|---------------------------------------------------------------------|


                                     2
|--19-17-15-12-15-19-15-12-19p15-12-----------|
|-----------------------------------17bu------|
|---------------------------------------------|
|---------------------------------------------|
|---------------------------------------------|
|---------------------------------------------|


             1/2                             1/2                  1
|------------12bu---|----12----------|------------|---------------------|
|--9/10--9----------|-------\--11\10-|------------|--------------12bu---|
|-------------------|----------------|--9-8--10bu-|----10---\----11bu---|
|-------------------|----------------|------------|---------------------|
|-------------------|----------------|------------|---------------------|
|-------------------|----------------|------------|---------------------|


                   1           1        w/bar
|---------------|-----------|--------|-----------|
|-----(12)------|--15bu-----|--19bu--|--(19)-----|
|-----(11)------|--14bu-----|--18bu--|--(18)-----|
|---------------|-----------|--------|-----------|
|---------------|-----------|--------|-----------|
|---------------|-----------|--------|-----------|


End riff

|--------------------|--------------------|
|--------------------|--------------------|
|--------------------|--------------------|
|----9-8------8------|----9-8------8------|
|--------10-9---9-8--|--------10-9---8-7--|
|--0-----------------|--0-----------------|
|
|
|
|--------------------|--------------------|
|--------------------|--------------------|
|--------------------|--------------------|
|--2-----------------|--2-----------------|
|--2-----------------|--2-----------------|
|--0-----------------|--0-----------------|



Skeleton Christ
Tuning B


 RIFF 1 INTRO

|KING x1
|---------------------|
|---------------------|
|---------------------|
|---------------------|
|---------------------|
|-0000-0000-0000-0000-|
  .... .... .... ....


|BOTH x3
|---------------------|
|---------------------|
|---------------------|
|---------------------|
|---------------------|
|-0000-0000-0000-0000-|
  .... .... .... ....



 FILL 1

|--------------|
|--------------|
|--------------|
|------5-------|
|------3-------|
|-0000-----5b^-|
  ....



 RIFF 2 VERSE x3

|--------------------------------------------|
|--------------------------------------------|
|--------------------------------------------|
|------------------------------------5-------|
|------------------------------------3-------|
|-0000-0000-0000-0000-0000-0000-0000-----5b^-|
  .... .... .... .... .... .... ....



 RIFF 3 BRIDGE x1

|x2
|-------------------------------------|-------------------------------------|
|-------------------------------------|-------------------------------------|
|-------------------------------------|-------------------------------------|
|-------------------------------------|-------------------------------------|
|-----------3--------6--------5---3---|-----------3--------6--------5---4---|
|-0000-0000-1---0000-4---0000-3---1---|-0000-0000-1---0000-4---0000-3---2---|
  .... ....     ....     ....           .... ....     ....     ....


|-----------|
|-----------|
|-----------|
|-----------|
|-3---------|
|-1---------|




 RIFF 4 CHORUS x4

|------------------------------------------|
|------------------------------------------|
|------------------------------------------|
|---------------------3/4------------------|
|-2--------5/6--------1/2--------5/6---3---|
|-0-000000-3/4-000000-----000000-3/4-0-1---|
    ......     ......     ......     .



 FILL 2

|KING                 S.H. WAH & BAR
|------------------------------------------|
|------------------------------------------|
|------------------------------------------|
|---------------------3//\\\\\\\\\\\\\\\---|
|-2--------5/6-----------------------------|
|-0-000000-3/4-000000----------------------|
|   ......     ......
|
|HANNEMAN
|------------------------------------------|
|------------------------------------------|
|------------------------------------------|
|------------------------------------------|
|-2--------5/6--------9--------------------|
|-0-000000-3/4-000000-7--------------------|
    ......     ......  x



 SOLO 1 KING
   WAH___________       WAH_        WAH N.H. BAR                  WAH & BAR
|---------------------------------///24-24///\\\\/\/\\---------------------|
|-//21b^^^212121b^^^---//21b^^^---------24///\\\\/\/\\/\/\\\/\\------------|
|-----------------------------------------------------------------0//\\\---|
|--------------------------------------------------------------------------|
|--------------------------------------------------------------------------|
|--------------------------------------------------------------------------|

  WAH & BAR/\/\/\/\/\/\/\/\/\/\/\/\/\/\/\/\/\/\/\/\/\/\/\/\/\/\/\/\/\/\/\
|-------------------------------------------------------------------------|
|-------------------------------------------------------------------------|
|-4p3p0h4p3p0h4p3p0h6p4p0h6p4p0h6p4p0h7p6p0h7p6p0h7p6p0h9p7p0h9p7p0h9p7p0-|
|-------------------------------------------------------------------------|
|-------------------------------------------------------------------------|
|-------------------------------------------------------------------------|

  WAH__________________________________________________________________
|-----------------------------------------------------------------------|
|-----------------------------------------------------------------------|
|-13-9h12-13-9h12-14-10h13-14-10h13-15-11h14-15-11h14-16-12h15-16-12h15-|
|-----------------------------------------------------------------------|
|-----------------------------------------------------------------------|
|-----------------------------------------------------------------------|
   T       T       T        T        T        T        T        T
  WAH____________________________________________________________________
|-------------------------------------------------------------------------|
|-------------------------------------------------------------------------|
|-17-13h16-17-13h16-18-14h17-18-14h17-19-15h18-19-15h18-20-16h19-20-16h19-|
|-------------------------------------------------------------------------|
|-------------------------------------------------------------------------|
|-------------------------------------------------------------------------|
   T        T        T        T        T        T        T        T
  WAH______________  WAH_        WAH        WAH      WAH_______
|--------------------------------------------------------------------------|
|------------------------//21b^^^^^---21b^^^^^---21b^^^---21---------------|
|-21-17h20-21-17h20-x///-------------------------------------20b^^^\\\-----|
|--------------------------------------------------------------------------|
|--------------------------------------------------------------------------|
|--------------------------------------------------------------------------|
   T        T



 RIFF 1A x5 UNDER SOLO

|---------------------|
|---------------------|
|---------------------|
|---------------------|
|---------------------|
|-0000-0000-0000-0000-|
  .... .... .... ....



 FILL 1


 RIFF 2 VERSE x3

 RIFF 3 BRIDGE x1

 RIFF 4 CHORUS x4


 RIFF 5 BREAK x2

|-----------------|-----------------|-----------------|-------------------|
|-----------------|-----------------|-----------------|-------------------|
|-----------------|-----------------|-----------------|-------------------|
|-----------------|-----------------|-----------------|-------------------|
|-----------------|-----------------|-----------------|---------------3---|
|-3-1-0-1-4-3-0-1-|-6-4-0-1-4-3-0-1-|-3-1-0-1-4-3-0-1-|-6-4-0-1-4-3-0-1---|
  . . . . . . . .   . . . . . . . .   . . . . . . . .   . . . . . . .



 RIFF 4 CHORUS x4


 RIFF 6 INTERLUDE x1

|x3
|-------------------------------|
|-------------------------------|
|-------------------------------|
|-------------------------------|
|---8-8---7---------------------|
|-0-----0---0-0-0-0-0-0-0-0-0-0-|
  .     .   . . . . . . . . . .


|KING
|-------------------------------|
|-------------------------------|
|-------------------------------|
|-------------------------------|
|---8-8---7---------------------|
|-0-----0---0-0-0-0-x\\\\\\\\\\-|
| .     .   . . . .
|
|HANNEMAN
|-------------------------------|
|-------------------------------|
|-------------------------------|
|-------------------------------|
|---8-8---7---------------------|
|-0-----0---0-0-0-0-0-0-0-0-0-0-|
  .     .   . . . . . . . . . .



 RIFF 6A INTERLUDE x4

|---------------------------------|
|---------------------------------|
|---------------------------------|
|---------------------------------|
|---8-8---7------10-9-----9-8-----|
|-0-----0---0-7-8-----6-7-----6b^-|
  .     .   .



 RIFF 7 BREAK x1

|KING
|---------------------------------|
|---------------------------------|
|---------------------------------|
|-5-5-4-7-7-----------------------|
|-3-3-2-5-5-----------------------|
|-----------0-1-4-3-0-1-4-3-0-1-0-|
|           . . . . . . . . . . .
|
|HANNEMAN
|---------------------------------|
|---------------------------------|
|---------------------------------|
|-5-5-4-7-7-----------------------|
|-3-3-2-5-5-----------------------|
|---------------------------------|
           x


|KING
|---------------------------------|
|---------------------------------|
|---------------------------------|
|-5-5-4-7-7-----------------------|
|-3-3-2-5-5-----------------------|
|-----------0-1-4-3-0-1-4-3-0-1-0-|
|           . . . . . . . . . . .
|
|HANNEMAN
|---------------------------------|
|---------------------------------|
|---------------------------------|
|-5-5-4-7-7-----------------------|
|-3-3-2-5-5-----------------------|
|----------------------16\\\\\\\\-|
           x



 RIFF 6B INTERLUDE x1

|-------------------------------|
|-------------------------------|
|-------------------------------|
|-------------------------------|
|---8-8---7---------------------|
|-0-----0---0-0-0-0-0-0-0-0-0-0-|
  .     .   . . . . . . . . . .


|KING
|-------------------------------|
|-------------------------------|
|-------------------------------|
|-------------------------------|
|---8-8---7---------------------|
|-0-----0---0-0-0-0-x\\\\\\\\\\-|
| .     .   . . . .
|
|HANNEMAN
|-------------------------------|
|-------------------------------|
|-------------------------------|
|-------------------------------|
|---8-8---7---------x\\\\\\\\\\-|
|-0-----0---0-0-0-0-------------|
  .     .   . . . .



 RIFF 6C INTERLUDE x1

|KING
|---------------------------------|
|---------------------------------|
|---------------------------------|
|---------------------------------|
|---8-8---7------10-9-----9-8-----|
|-0-----0---0-7-8-----6-7-----1b^-|
| .     .   .
|
|HANNEMAN
|---------------------------------|
|---------------------------------|
|---------------------------------|
|---------------------------------|
|---8-8---7------10-9-----9-8-----|
|-0-----0---0-7-8-----6-7-----6b^-|
  .     .   .


|KING                         A.H.
|---------------------------------|
|---------------------------------|
|---------------------------------|
|---------------------------------|
|---8-8---7------10-9-----9-8-----|
|-0-----0---0-7-8-----6-7-----1b^-|
| .     .   .
|
|HANNEMAN
|---------------------------------|
|---------------------------------|
|---------------------------------|
|---------------------------------|
|---8-8---7------10-9-----9-8-----|
|-0-----0---0-7-8-----6-7-----6b^-|
  .     .   .


|KING
|---------------------------------|
|---------------------------------|
|---------------------------------|
|---------------------------------|
|---8-8---7------10-9-----9-8-----|
|-0-----0---0-7-8-----6-7-----1b^-|
| .     .   .
|
|HANNEMAN
|---------------------------------|
|---------------------------------|
|---------------------------------|
|---------------------------------|
|---8-8---7------10-9-----9-8-----|
|-0-----0---0-7-8-----6-7-----6b^-|
  .     .   .


|KING
|---------------------------------|
|---------------------------------|
|---------------------------------|
|---------------------------------|
|---8-8---7------10-9-----9-8-----|
|-0-----0---0-7-8-----6-7-----1b^-|
| .     .   .
|
|HANNEMAN
|---------------------------------|
|---------------------------------|
|---------------------------------|
|---------------------------------|
|---8-8---7------10-9-----9-8-----|
|-0-----0---0-7-8-----6-7-----6b^-|
  .     .   .



 RIFF 7A INTO SOLO x1

|KING       WAH__________________
|---------------------------------|
|---------------------------------|
|-----------1h4p1h4p1h4p1h4p1h4p1-|
|-5-5-4-7-7-----------------------|
|-3-3-2-5-5-----------------------|
|---------------------------------|
|
|
|HANNEMAN
|---------------------------------|
|---------------------------------|
|---------------------------------|
|-5-5-4-7-7-----------------------|
|-3-3-2-5-5-----------------------|
|-----------0-1-4-3-0-1-4-3-0-1-0-|
            . . . . . . . . . . .


|KING       WAH__________________
|---------------------------------|
|---------------------------------|
|-//////////4h7p4h7p4h7p4h7p4h7p4-|
|---------------------------------|
|---------------------------------|
|---------------------------------|
|
|
|HANNEMAN
|---------------------------------|
|---------------------------------|
|---------------------------------|
|-5-5-4-7-7-----------------------|
|-3-3-2-5-5-----------------------|
|-----------0-1-4-3-0-1-4-3-0-1-0-|
            . . . . . . . . . . .


|KING
|-----------|
|-----------|
|-----------|
|-x\\\\\\\\-|
|-x\\\\\\\\-|
|-----------|
|
|
|HANNEMAN
|-----------|
|-----------|
|-----------|
|-5-5-4-7-7-|
|-3-3-2-5-5-|
|-----------|




 SOLO 2 KING
  WAH_______________________________________________________________________
|----------------------------------------------------------------------------|
|-13h14p13h14p13h14p13h14p13-17-13h14p13h14p13h14p13h14p13-17-13h14-17-13h14-|
|----------------------------------------------------------------------------|
|----------------------------------------------------------------------------|
|----------------------------------------------------------------------------|
|----------------------------------------------------------------------------|
                              T                             T        T
  WAH____________________________________________________________________
|-------------------------------------------------------------------------|
|-17-13h14-17-13h14-18-14h15-18-14h15-19-15h16-19-15h16-20-16h17-20-16h17-|
|-------------------------------------------------------------------------|
|-------------------------------------------------------------------------|
|-------------------------------------------------------------------------|
|-------------------------------------------------------------------------|

  WAH__________________________________________________________
|---------------------------------------------------------------------|
|-21-17h18-21-17h18-22-18h19-22-18h19-23-19h20-23-19h20///24\\\\\-----|
|---------------------------------------------------------------------|
|---------------------------------------------------------------------|
|---------------------------------------------------------------------|
|---------------------------------------------------------------------|
   T        T        T        T        T        T
  WAH___________________________________________ WAH_____   WAH
|--------------------------------------------------------------------|
|------------------------------------------------21fb^^^r---21b^^^---|
|-10-9-12-10-13-12-15-13-16-15-18-16-19-18-21-19---------------------|
|--------------------------------------------------------------------|
|--------------------------------------------------------------------|
|--------------------------------------------------------------------|

  WAH_____   WAH                     N.H. BAR              WAH____
|---------------------//24fb^^^^^r---17////\/\//\/\//\\\---------------|
|-21fb^^^r---21b^^^----------------------------------------x\\\\\\-----|
|----------------------------------------------------------x\\\\\\-----|
|----------------------------------------------------------------------|
|----------------------------------------------------------------------|
|----------------------------------------------------------------------|




 RIFF 7B x4 UNDER SOLO 2

|---------------------------------|
|---------------------------------|
|---------------------------------|
|---------------------------------|
|---------------------------------|
|-3-3-1-4-4-0-1-4-3-0-1-4-3-0-1-0-|
  . . . . . . . . . . . . . . . .



 RIFF 4 CHORUS x5


 RIFF 4B BREAK x1

|---------------------------------------------------------------|
|---------------------------------------------------------------|
|---------------------------------------------------------------|
|---------------------3/4---------------------------------------|
|-2--------5/6--------1/2--------333333333333333333333333333333-|
|-0-000000-3/4-000000-----000000-111111111111111111111111111111-|
    ......     ......     ......



 RIFF 8A INTO OUTRO x1

|KING x7                |x1
|-----------------------|-----------------------|
|-----------------------|-----------------------|
|-----------------------|-----------------------|
|-----------------------|-----------------------|
|-----------------2-----|-----------------------|
|-0---0-0---0-0---0-----|-0---0-0---0-0---6b^^^-|
| .   . .   . .   .x      .   . .   . .
|
|HANNEMAN x7            |x1
|-----------------------|-----------------------|
|-----------------------|-----------------------|
|-----------------------|-----------------------|
|-----------------------|-----------------------|
|-----------------------|-----------------------|
|-----------------------|-----------------6b^^^-|




 RIFF 8 OUTRO x2

|-----------------------|-----------------------|
|-----------------------|-----------------------|
|-----------------------|-----------------------|
|-----------------------|-----------------------|
|-----------------2-----|-----------------2-----|
|-0---0-0---0-0---0-----|-0---0-0---0-0---0-----|
  .   . .   . .   .x      .   . .   . .   .x


|-----------------------|-----------------------|
|-----------------------|-----------------------|
|-----------------------|-----------------------|
|-----------------------|-----------------------|
|-----------------2-----|-----------------------|
|-0---0-0---0-0---0-----|-0---0-0---0-0---6b^^^-|
  .   . .   . .   .x      .   . .   . .



 SOLO 3 HANNEMAN

|-19b^^^---------------19-------------19-19----19-19----19-19----19-21-24b^^^-|
|-20b^^^---20b^^^---20----20b^^^---20-------20-------20-------20--------------|
|-----------------------------------------------------------------------------|
|-----------------------------------------------------------------------------|
|-----------------------------------------------------------------------------|
|-----------------------------------------------------------------------------|

                                         WAH________________________________
|-21-22-24-------------------------------------------------------------------|
|----------24-23-21-23-24-23-21----------------------------------------------|
|-------------------------------24-22-21-19-21-22-18-19-21-16-18-19-15-16-18-|
|----------------------------------------------------------------------------|
|----------------------------------------------------------------------------|
|----------------------------------------------------------------------------|

  WAH      WAH_      WAH & BAR  WAH_      WAH & BAR  WAH_      WAH_
|------------------------------------------------------------------------|
|-17b^^^---/21b^^^---0h3p0h3p0///20b^^^---0h3p0h3p0///15b^^^---/13b^^^---|
|-16b^^^-----------------------------------------------------------------|
|------------------------------------------------------------------------|
|------------------------------------------------------------------------|
|------------------------------------------------------------------------|

  WAH_      WAH          WAH_______________________________________________
|---------------------------------------------------------------------------|
|-/11b^^^---10b^^^^^-----------------------12-14-15----------12-14-15-12-14-|
|------------------------12-13-15-12-13-15----------12-13-15----------------|
|---------------------------------------------------------------------------|
|---------------------------------------------------------------------------|
|---------------------------------------------------------------------------|

  WAH_________________________________________________________________
|----12-13-15-13-12-13-15-13-12-15-13-12-------------------------------|
|-15-------------------------------------15-14-12-14-15-14-12----------|
|-------------------------------------------------------------15-13-12-|
|----------------------------------------------------------------------|
|----------------------------------------------------------------------|
|----------------------------------------------------------------------|

  WAH       WAH_____           WAH_____          WAH_____
|----------///191919-19fb^r---///191919-19fb^---///191919-19b^-19b^---19b^-|
|-14b^^^-------------------------------------------------------------------|
|-13b^^^-------------------------------------------------------------------|
|--------------------------------------------------------------------------|
|--------------------------------------------------------------------------|
|--------------------------------------------------------------------------|

                     WAH_____           WAH_____          WAH_____
|-19b^---19fb^^^r---///191919-19fb^r---///191919-19fb^---///191919-19b^-19b^-|
|----------------------------------------------------------------------------|
|----------------------------------------------------------------------------|
|----------------------------------------------------------------------------|
|----------------------------------------------------------------------------|
|----------------------------------------------------------------------------|


|-19b^---19b^---24fb^^^^^r---24b^^^^^^^^^^\\\\\-----|
|---------------------------------------------------|
|---------------------------------------------------|
|---------------------------------------------------|
|---------------------------------------------------|
|---------------------------------------------------|




 RIFF 8B x6 UNDER SOLO 3

|-----------------------|-----------------------|
|-----------------------|-----------------------|
|-----------------------|-----------------------|
|-----------------------|-----------------------|
|-----------------3-----|-----------------6-----|
|-0---0-0---0-0---1-----|-0---0-0---0-0---4-----|
  .   . .   . .           .   . .   . .


|---------------------------------------|
|---------------------------------------|
|---------------------------------------|
|---------------------------------------|
|-----------------5-------5-------3-----|
|-0---0-0---0-0---3-----0-3-----0-1-----|
  .   . .   . .         .       .



 FILL 3 END

|-----------------------|
|-----------------------|
|-----------------------|
|-----------------------|
|-----------------2-----|
|-0---0-0---0-0---0-----|
  .   . .   . .   .x



catatonic
slayer
christ illusion

Tabbed by David De la Cruz

tuning 1=C# 2=G# 3=E 4=B 5=F# 6=B

intro

C#|------------------------------------------------------|
G#|------------------------------------------------------|
E |------------------------------------------------------|
B |----------------0--0-0-------------------------6--6---|
F#|---7-6-7-6-7-6--0--0-0----7-6-7-6-7-6-7/11--6-7--7-6--|  x4
B |----------------0--0-0--------------------------------|
PM                    . .

    first verse
C#|-----------------------------------|
G#|-----------------------------------|
E |-----------------------------------|
B |-----------------------------------|
F#|-------------------------------6-7-|  
B |--0000--00-0000--0000--00-0000-----|

Chorus

C#|--------------------------------|
G#|--------------------------------|
E |--------------------------------|
B |--0-2-3------0-4-3-2------------|
F#|--0-2-3--x3--0-4-3-2------------|  
B |--0-2-3------0-4-3-2------------|
PM   . . .      . . . .

"My blood soaked hands devise........." 
             
             Heavy
C#|--------------------------------|
G#|--------------------------------|
E |--------------------------------|
B |--0-3-5--0-3-6------------------| listen the song
F#|--0-3-5--0-3-6------------------|  
B |--0-3-5--0-3-6------------------|

 Next verse
C#|-----------------------------------|
G#|-----------------------------------|
E |-----------------------------------|
B |-----------------------------------|
F#|-------------------------------6-7-|  
B |--0000--00-0000--0000--00-0000-----|

Then
"Embrace it....."
C#|--------------------------------|
G#|--------------------------------|
E |--------------------------------|
B |--0-2-3------0-4-3-2------------|
F#|--0-2-3--x3--0-4-3-2------------|  
B |--0-2-3------0-4-3-2------------|
PM   . . .      . . . .

then

C#|-----------------------------------|
G#|-----------------------------------|
E |-----------------------------------|
B |-----------------------------------|  x8
F#|-----6-7-6-7----6-7-9-7-6----------|  
B |--00---------00--------------------|
PM   ..         ..

when plays the solo the other guitar play this

        Heavy
C#|--------------------------------|
G#|--------------------------------|
E |--------------------------------|
B |--0-3-5--0-3-6------------------|
F#|--0-3-5--0-3-6------------------|  listen the song
B |--0-3-5--0-3-6------------------|

after the solo
This part is very cool  HEAVY AND  FAST
C#|--------------------------------------------------------|
G#|--------------------------------------------------------|
E |--------------------------------------------------------|
B |--------------------------------------------------------| listen the song
F#|--------------------------------------------------------|  
B |000000-00 000000-000000-00000--x2--111111111-11-1111111-|

Then

C#|--------------------------------|
G#|--------------------------------|
E |--------------------------------|
B |--0-2-3------0-4-3-2------------|
F#|--0-2-3--x3--0-4-3-2------------|  
B |--0-2-3------0-4-3-2------------|
PM   . . .      . . . .

Then

                Heavy
C#|--------------------------------|
G#|--------------------------------|
E |--------------------------------|
B |--0-3-5--0-3-6------------------|listen the song
F#|--0-3-5--0-3-6------------------|  
B |--0-3-5--0-3-6------------------|

And finally

C#|--------------------------------------------------------|
G#|--------------------------------------------------------|
E |--------------------------------------------------------|
B |--------------------------------------------------------| listen the song
F#|--------------------------------------------------------|  
B |000000-00 000000-000000-00000--x2--111111111-11-1111111-|



SLAYER

cult

intro

Eb|--------------------------------------------------------------------------------|
Bb|--------------------------------------------------------------------------------|
F#|--------------------------------------------------------------------------------|
C#|--------------------------------------------------------------------------------| 
x 3
G#|---8-7-----7-7-7------8-7-------10-10-10-------8-7-----7-7-7-----8-7-----10-9-8-|
C#|-0------0----------0--------0--------------0--------0---------0-------0---------|


  distorsion
   gt1
Eb|---------------------------------------------------------------------------------|
Bb|---------------------------------------------------------------------------------|
F#|---------------------------------------------------------------------------------|
C#|---------------------------------------------------------------------------------|
G#|---8-7-----7-7-7------8-7-------10-10-10-------8-7-----7-7-7------8-7-----10-9-8-|
C#|-0------0----------0--------0---------------0-------0----------0-------0---------|


   gt2
Eb|-----------------------------------------------------------------------------------|
Bb|-----------------------------------------------------------------------------------|
F#|-----------------------------------------------------------------------------------|
C#|--------------------------------------------------------------------------12-11-10-|
G#|---8-7-----7-7-7------8-7-------10-10-10-------8-7-----7-7-7------8-7--------------|
C#|-0-----0-0--------0-0------0-0---------------0-----0-0--------0-0-------0----------|


   gt1
Eb|--------------------------------------------------------------------------------|
Bb|--------------------------------------------------------------------------------|
F#|--------------------------------------------------------------------------------|
C#|--------------------------------------------------------------------------------|
G#|---8-7-----7-7-7------8-7-------10-10-10-------8-7-----7-7-7------8-7-----5-4-3-|
C#|-0------0----------0--------0---------------0-------0----------0-------0--3-2-1-|


   gt2
Eb|--------------------------------------------------------------------------------|
Bb|--------------------------------------------------------------------------------|
F#|--------------------------------------------------------------------------------|
C#|--------------------------------------------------------------------------------|
G#|---8-7-----7-7-7------8-7-------10-10-10-------8-7-----7-7-7------8-7-----5-4-3-|
C#|-0------0----------0--------0---------------0-------0----------0-------0--3-2-1-|



Eb|---------------------------------------------------|
Bb|---------------------------------------------------|
F#|---------------------------------------------------|
C#|---------------------------------------------------|
G#|-2--5--4--2--2-2-2-2-2-2--2--6--5----------4-----3-|
C#|-0--3--2--0--0-0-0-0-0-0--0--4--3--0--0-0--2--0--1-|

Eb|---------------------------------------------------|
Bb|---------------------------------------------------|
F#|---------------------------------------------------|
C#|---------------------------------------------------|
G#|-2--6--5--2--2-2-2-2-2-2--2--5--4----------4-----3-|
C#|-0--4--3--0--0-0-0-0-0-0--0--3--2--0--0-0--2--0--1-|


Eb|---------------------------------------------------|
Bb|---------------------------------------------------|
F#|---------------------------------------------------|
C#|---------------------------------------------------|
G#|-2--5--4--2--2-2-2-2-2-2--2--6--5----------4-----3-|
C#|-0--3--2--0--0-0-0-0-0-0--0--4--3--0--0-0--2--0--1-|

Eb|---------------------------------------------------|
Bb|---------------------------------------------------|
F#|---------------------------------------------------|
C#|---------------------------------------------------|
G#|-2--6--5--2--2-2-2-2-2-2--2--5--4----------4-----3-|
C#|-0--4--3--0--0-0-0-0-0-0--0--3--2--0--0-0--2--0--1-|


Eb|----------------------------------------------------------------------|
Bb|----------------------------------------------------------------------|
F#|----------------------------------------------------------------------|
C#|----------------------------------------------------------------------|
G#|---------------------------3-5------------------------------------5-4-|
C#|-0-3p1-00-2p1-000-1p0-000--1-3--0-3p1-00-2p1-000-1p0-000-2p1-000--3-2-|

Eb|-----------------------------------------------------------------------------|
Bb|-----------------------------------------------------------------------------|
F#|-----------------------------------------------------------------------------|
C#|-----------------------------------------------------------------------------|
G#|----------------------------------3-5------------------------------------5-4-|
C#|-0-3p1-00-2p1-000-1p0-000-2p1-000-1-3--0-3p1-00-2p1-000-1p0-000-2p1-000--3-2-|


verse
  oppression is the holy law in god i distrust a talent monument of fall to 
ashes to dust
   is what i agree the master plan the bible is where it all begins this 
propaganda shall
   dispare since the bible is everywhere
Eb|---------------------------------------------------------|
Bb|---------------------------------------------------------|
F#|---------------------------------------------------------|
C#|---------------------------------------------------------|
G#|----------------------------------------------5---4---5--|
C#|-000000000000-0-4p3h4-0-1-3--000000000000---0-3-0-2-0-3--|


   religion is hate religion is fear religion is war
Eb|-----------------------------------------------------------------------------------|
Bb|-----------------------------------------------------------------------------------|
F#|-----------------------------------------------------------------------------------|
C#|-----------------------------------------------------------------------------------|
G#|-----------------------------------------------------------------------------------|
C#|-111111111-4-3333333--111111111-4-3333333--111111111-4-3333333-111111111-4-3333333-|


   religion is rape religion is obscene religion is a whore
Eb|-----------------------------------------------------------------------------|
Bb|-----------------------------------------------------------------------------|
F#|-----------------------------------------------------------------------------|
C#|-----------------------------------------------------------------------------|
G#|-------------------------------------------------------------------------6-5-|
C#|-111111111-4-3333333--111111111-4-3333333--111111111-4-3333333-111111111-4-3-|


    the ..... of jesus christ there never was a sacrifice the man hides the 
truth that
    exists the world becomes a .... i made my choice 6 6 6
Eb|----------------------------------------|
Bb|----------------------------------------|
F#|----------------------------------------|
C#|----------------------------------------|
G#|----------------------------------------|
C#|-000000-3-444444-000-333333-0-444444444-|


  solo 1
Eb|-22b--22b-22-22-22-22-19-19-19-20-20-20-22-22-22-19-20-19-------------------------|
Bb|----------------------------------------------------------22-19-20-22-20-19-20-19-|
F#|----------------------------------------------------------------------------------|
C#|----------------------------------------------------------------------------------|
G#|----------------------------------------------------------------------------------|
C#|----------------------------------------------------------------------------------|


Eb|----------------------------------------17-17-17-18-20-18-17-18-17----------------------|
Bb|-------------------------------------------------------------------20-17-18-20-18-17-18-|
F#|-22-19-20-22-20-19-20-19-----19-21b-----------------------------------------------------|
C#|--------------------------21------------------------------------------------------------|
G#|----------------------------------------------------------------------------------------|
C#|----------------------------------------------------------------------------------------|

Eb|-----------------------------------------------------------------------------|
Bb|-17--------------------------------------------------------------------------|
F#|----19-16-18-19-18-16-18-16--------------------------------------------------|
C#|----------------------------19-16-18-19-18-16-18-16--------------------------|
G#|-----------------------------------------------------19-16-18-19-18-16-18-16-|
C#|-----------------------------------------------------------------------------|

Eb|--------------------------------------------------------------------|
Bb|--------------------------------------------------------18b-18b-18b-|
F#|-------------------------------------------16-18-16-18--18b-18b-18b-|
C#|----------------------------16-18-16-18-19--------------------------|
G#|-------------16-18-16-18-19-----------------------------------------|
C#|-19-16-18-19--------------------------------------------------------|


Eb|---------------------------------------------------------|
Bb|---------------------------------------------------------|
F#|---------------------------------------------------------|
C#|---------------------------------------------------------|
G#|----------------------------------------------5---4---5--|
C#|-000000000000-0-4p3h4-0-1-3--000000000000---0-3-0-2-0-3--|


Eb|-----------------------------------------------------------------------------------|
Bb|-----------------------------------------------------------------------------------|
F#|-----------------------------------------------------------------------------------|
C#|-----------------------------------------------------------------------------------|
G#|-----------------------------------------------------------------------------------|
C#|-111111111-4-3333333--111111111-4-3333333--111111111-4-3333333-111111111-4-3333333-|

Eb|-----------------------------------------------------------------------------|
Bb|-----------------------------------------------------------------------------|
F#|-----------------------------------------------------------------------------|
C#|-----------------------------------------------------------------------------|
G#|-------------------------------------------------------------------------6-5-|
C#|-111111111-4-3333333--111111111-4-3333333--111111111-4-3333333-111111111-4-3-|


Eb|----------------------------------------|
Bb|----------------------------------------|
F#|----------------------------------------|
C#|----------------------------------------|
G#|----------------------------------------|
C#|-000000-3-444444-000-333333-0-444444444-|


Eb|---------------------------------------------------|
Bb|---------------------------------------------------|
F#|---------------------------------------------------|
C#|---------------------------------------------------|
G#|-2--5--4--2--2-2-2-2-2-2--2--6--5----------4-----3-|
C#|-0--3--2--0--0-0-0-0-0-0--0--4--3--0--0-0--2--0--1-|

Eb|---------------------------------------------------|
Bb|---------------------------------------------------|
F#|---------------------------------------------------|
C#|---------------------------------------------------|
G#|-2--6--5--2--2-2-2-2-2-2--2--5--4----------4-----3-|
C#|-0--4--3--0--0-0-0-0-0-0--0--3--2--0--0-0--2--0--1-|


Eb|---------------------------------------------------|
Bb|---------------------------------------------------|
F#|---------------------------------------------------|
C#|---------------------------------------------------|
G#|-2--5--4--2--2-2-2-2-2-2--2--6--5----------4-----3-|
C#|-0--3--2--0--0-0-0-0-0-0--0--4--3--0--0-0--2--0--1-|

Eb|---------------------------------------------------|
Bb|---------------------------------------------------|
F#|---------------------------------------------------|
C#|---------------------------------------------------|
G#|-2--6--5--2--2-2-2-2-2-2--2--5--4----------4-----3-|
C#|-0--4--3--0--0-0-0-0-0-0--0--3--2--0--0-0--2--0--1-|


Eb|----------------------------------------------------------------------|
Bb|----------------------------------------------------------------------|
F#|----------------------------------------------------------------------|
C#|----------------------------------------------------------------------|
G#|---------------------------3-5------------------------------------5-4-|
C#|-0-3p1-00-2p1-000-1p0-000--1-3--0-3p1-00-2p1-000-1p0-000-2p1-000--3-2-|

Eb|-----------------------------------------------------------------------------|
Bb|-----------------------------------------------------------------------------|
F#|-----------------------------------------------------------------------------|
C#|-----------------------------------------------------------------------------|
G#|----------------------------------3-5------------------------------------5-4-|
C#|-0-3p1-00-2p1-000-1p0-000-2p1-000-1-3--0-3p1-00-2p1-000-1p0-000-2p1-000--3-2-|



   solo 2
Eb|---------------------------------------------------------------------------------------|
Bb|---------------------------------------------------------------------------------------|
F#|-12t5-12t5-12t5-12t5-12t5--14t5-14t5-14t5-14t5-14t5--17t5-17t5-17t5-17t5----9bf--9b--0-|
C#|---------------------------------------------------------------------------------------|
G#|---------------------------------------------------------------------------------------|
C#|---------------------------------------------------------------------------------------|

    bar
Eb|------------------------------------------------------------------------22bf-22b~~-|
Bb|-----/-------20-22-23-----20-22-23------20-22-23------20-22-23-----20--------------|
F#|-(0)/----/22-----------22-----------22------------22------------22-----------------|
C#|-----------------------------------------------------------------------------------|
G#|-----------------------------------------------------------------------------------|
C#|-----------------------------------------------------------------------------------|

Eb|-19-19-19-20-20-20-22-22-22-19-20-19-------------------------|
Bb|-------------------------------------22-19-20-22-20-19-20-19-|
F#|-------------------------------------------------------------|
C#|-------------------------------------------------------------|
G#|-------------------------------------------------------------|
C#|-------------------------------------------------------------|

                                                                       bar
Eb|----------------------------------------------------------------------/---------------|
Bb|------------------------------------------------------------5-6-5----/----5b-5b-5b-5b-|
F#|-22-19-20-22-20-19-20-19-----19/-----5~~~-----5-6-8-6-5------------0/-----7b-7b-7b-7b-|
C#|--------------------------21---------------7-------------7----------------------------|
G#|--------------------------------------------------------------------------------------|
C#|--------------------------------------------------------------------------------------|

                                 --------------------------------------
Eb|-----20b-20b-20b-20b-20b--23bf/--23-23-23-23-23-23-23-23-23-23-23-23-------------------|
Bb|-5/--23b-23b-23b-23b-23b-------/-------------------------------------------------------|
F#|--------------------------------/---------------------------------------0-----(0)------|
C#|---------------------------------/-----------------------------------------------------|
G#|----------------------------------/----------------------------------------------------|
C#|-----------------------------------/---------------------------------------------------|

    bar ////////////
Eb|-----------------------------------------------------------------------|
Bb|-----------------------------------------------------------------------|
F#|-(0)-------------------------------------------------------------------|
C#|-----------------------------------------------------------------------|
G#|-----------------------------------------------------------------------|
C#|-----------------------------------------------------------------------|


Eb|---------------------------------------------------------|
Bb|---------------------------------------------------------|
F#|---------------------------------------------------------|
C#|---------------------------------------------------------|
G#|----------------------------------------------5---4---5--|
C#|-000000000000-0-4p3h4-0-1-3--000000000000---0-3-0-2-0-3--|


Eb|-----------------------------------------------------------------------------------|
Bb|-----------------------------------------------------------------------------------|
F#|-----------------------------------------------------------------------------------|
C#|-----------------------------------------------------------------------------------|
G#|-----------------------------------------------------------------------------------|
C#|-111111111-4-3333333--111111111-4-3333333--111111111-4-3333333-111111111-4-3333333-|

Eb|-----------------------------------------------------------------------------|
Bb|-----------------------------------------------------------------------------|
F#|-----------------------------------------------------------------------------|
C#|-----------------------------------------------------------------------------|
G#|-------------------------------------------------------------------------6-5-|
C#|-111111111-4-3333333--111111111-4-3333333--111111111-4-3333333-111111111-4-3-|


Eb|----------------------------------------|
Bb|----------------------------------------|
F#|----------------------------------------|
C#|----------------------------------------|
G#|----------------------------------------|
C#|-000000-3-444444-000-333333-0-444444444-|


Eb|---------------------------------------------------------|
Bb|---------------------------------------------------------|
F#|---------------------------------------------------------|
C#|---------------------------------------------------------|
G#|----------------------------------------------5---4---5--|
C#|-000000000000-0-4p3h4-0-1-3--000000000000---0-3-0-2-0-3--|


  solo 3
Eb|-17-18-20--17-18-20--17-----------------------------------------------------------------|
Bb|-------------------------20-17-18-20-17-18-20-------------------------------------------|
F#|-----------------------------------------------19-16-18-19-16-18-19-16------------------|
C#|-----------------------------------------------------------------------19-16-18-19-18-16|
G#|----------------------------------------------------------------------------------------|
C#|----------------------------------------------------------------------------------------|


Eb|----------------------------------------------------------------------------------------|
Bb|----------------------------------------------------------------------------------------|
F#|----------------------------------------------------------------------------16-18-19-16-|
C#|----------------------------------------------------------16-18-19-16-18-19-------------|
G#|-19-16-18-19-18-16----------------------16-18-19-16-18-19-------------------------------|
C#|-------------------19-16-18-19-16-18-19-------------------------------------------------|


Eb|-----------------17----------------17----------------17-18-20-18-17--18-19-23-18-19-23-|
Bb|--------17-18-20----20-18-17-18-20----20-18-17-18-20-----------------------------------|
F#|-18-19---------------------------------------------------------------------------------|
C#|---------------------------------------------------------------------------------------|
G#|---------------------------------------------------------------------------------------|
C#|---------------------------------------------------------------------------------------|


Eb|-18-19-23-18-19-23-19-18--17b-17b-17b----------------------------------|
Bb|--------------------------20b-20b-20b----------------------------------|
F#|-----------------------------------------------------------------------|
C#|-----------------------------------------------------------------------|
G#|-----------------------------------------------------------------------|
C#|-----------------------------------------------------------------------|



----------------------------------------------------------------------------
			     Supremist - SLAYER!
----------------------------------------------------------------------------


Tuning: D A D G B E (Low to High)

I have a bad feeling this is in drop B and this is kinda wrong but go ahead and try it. 
sounds good to me.

Riff 1 (00:01-00:19)

Guitar 1
e|-------------------------------------------------------------------------|
B|-------------------------------------------------------------------------|
G|-------------------------------------------------------------------------|
D|-3p0-0-0-0-0-0-0-0-0-0-0-0-0-3p0-0-0-3p0-6-6-6-6-6-6-6-6-6-6-6-6-6-------|
A|-------------------------------------------------------------------------|
D|-------------------------------------------------------------------------|
P.M.   . . . . . . . . . . . .     . .

Guitar 2
e|-------------------------------------------------------------------------|
B|-------------------------------------------------------------------------|
G|-------------------------------------------------------------------------|
D|-------------------------------------------------------------------------|
A|-------------------------------------------------------------------------|
D|-------------------------------------------------------------------------|

Guitar 1
e|-------------------------------------------------------------------------|
B|-------------------------------------------------------------------------|
G|-------------------------------------------------------------------------|
D|-3p0-0-0-0-0-0-0-0-0-0-0-0-0-3p0-0-0-------------------------------------|
A|-------------------------------------------------------------------------|
D|-------------------------------------1-3-5-3-5-7-6-4-2-5-3-1-------------|
P.M.   . . . . . . . . . . . .     . . . . . . . . . . . . . .

Guitar 2
e|-------------------------------------------------------------------------|
B|-------------------------------------------------------------------------|
G|-------------------------------------------------------------------------|
D|-------------------------------------------------------------------------|
A|-------------------------------------------------------------------------|
D|-------------------------------------------------------------------------|

Guitar 1
e|-------------------------------------------------------------------------|
B|-------------------------------------------------------------------------|
G|-------------------------------------------------------------------------|
D|---3p0-0-0-0-0-0-0-0-0-0-0-0-0-3p0-0-0-3p0-6-6-6-6-6-6-6-6-6-6-6-6-6-----|
A|-------------------------------------------------------------------------|
D|-------------------------------------------------------------------------|
P.M.     . . . . . . . . . . . .     . .

Guitar 2
e|-------------------------------------------------------------------------|
B|-------------------------------------------------------------------------|
G|-------------------------------------------------------------------------|
D|-------------------------------------------------------------------------|
A|-------------------------------------------------------------------------|
D|-------------------------------------------------------------------------|

Guitar 1
e|-------------------------------------------------------------------------|
B|-------------------------------------------------------------------------|
G|-------------------------------------------------------------------------|
D|---3p0-0-0-0-0-0-0-0-0-0-0-0-0-3p0-0-0-----------------------------------|
A|---------------------------------------1-3-5-3-5-7-6-4-2-5-3-1-----------|
D|-------------------------------------------------------------------------|
P.M.     . . . . . . . . . . . .     . . . . . . . . . . . . . .

Guitar 2
e|-------------------------------------------------------------------------|
B|-------------------------------------------------------------------------|
G|-------------------------------------------------------------------------|
D|-------------------------------------------------------------------------|
A|-------------------------------------------------------------------------|
D|---------------------------------------12*depress wammy bar*-------------|

Both guitars
e|-------------------------------------------------------------------------|
B|-------------------------------------------------------------------------|
G|-------------------------------------------------------------------------|
D|---3p0-0-0-0-0-0-0-0-0-0-0-0-0-3p0-0-0-3p0-6-6-6-6-6-6-6-6-6-6-6-6-6-----|
A|-------------------------------------------------------------------------|
D|-------------------------------------------------------------------------|
P.M.     . . . . . . . . . . . .     . .

e|-------------------------------------------------------------------------|
B|-------------------------------------------------------------------------|
G|-------------------------------------------------------------------------|
D|-3p0-0-0-0-0-0-0-0-0-0-0-0-0-3p0-0-0-------------------------------------|
A|-------------------------------------------------------------------------|
D|-------------------------------------1-3-5-3-5-7-6-4-2-5-3-1-------------|
P.M.   . . . . . . . . . . . .     . . . . . . . . . . . . . .

e|-------------------------------------------------------------------------|
B|-------------------------------------------------------------------------|
G|-------------------------------------------------------------------------|
D|---3p0-0-0-0-0-0-0-0-0-0-0-0-0-3p0-0-0-3p0-6-6-6-6-6-6-6-6-6-6-6-6-6-----|
A|-------------------------------------------------------------------------|
D|-------------------------------------------------------------------------|
P.M.     . . . . . . . . . . . .     . .

e|-------------------------------------------------------------------------|
B|-------------------------------------------------------------------------|
G|-------------------------------------------------------------------------|
D|---3p0-0-0-0-0-0-0-0-0-0-0-0-0-3p0-0-0-----------------------------------|
A|---------------------------------------5-5-5-5-4-4-4-4-------------------|
D|-------------------------------------------------------5-5-5-5-4-4-4-4---|
P.M.     . . . . . . . . . . . .     . . . . . . . . . . . . . . . . . .

Riff 2 (00:20-00:30)

Both guitars
e|-------------------------------------------------------------------------|
B|-------------------------------------------------------------------------|
G|-------------------------------------------------------------------------|
D|-------------------------------------------------------------------------|
A|-------------------------------------------------------------------------|
D|---3p0-0-0-0-0-0-0-0-0-0-0-0-0-3p0-0-0-3p0-6-6-6-6-6-6-6-6-6-6-6-6-------|
P.M.     . . . . . . . . . . . .     . .

e|-------------------------------------------------------------------------|
B|-------------------------------------------------------------------------|
G|-------------------------------------------------------------------------|
D|-------------------------------------------------------------------------|
A|-------------------------------------------------------------------------|
D|---3p0-0-0-0-0-0-0-0-0-0-0-0-0-3p0-0-0-3p0-1-1-1-1-1-1-1-1-1-1-1-1-------|
P.M.     . . . . . . . . . . . .     . .

e|-------------------------------------------------------------------------|
B|-------------------------------------------------------------------------|
G|-------------------------------------------------------------------------|
D|-------------------------------------------------------------------------|
A|-------------------------------------------------------------------------|
D|---3p0-0-0-0-0-0-0-0-0-0-0-0-0-3p0-0-0-3p0-7-7-7-6-6-6-3-3-3-2-2-2-------|
P.M.     . . . . . . . . . . . .     . .

| /  slide up
| \  slide down
| h  hammer-on
| p  pull-off
| ~  vibrato
| +  harmonic
| .  Mute note
============================================================================
Добавлено: 27.07.2013
Другие материалы по этой песне:
  • Аккорды и текст

Страница создана 27.07.2013
http://primanota.ru/slayer/christ-illusion-chords.htm
Привет, Гость.
Предлагаем пройти революционный курс по гитаре.
Подарок от PrimaNota.Ru, забирай!