PrimaNota.ru - самый крупный в мире бесплатный архив песенных текстов, аккордов, табулатур и нот


Slayer - Angel of Death - аккорды и текст, таба, бас-таба, драм-таба, видео

Регистрация Запомнить меня
Войти через:  Facebook Google Twitter Vk Yandex Mail.ru

Slayer - Angel of Death - аккорды и текст, таба, бас-таба, драм-таба, видео

Печатать
Просмотров: 470
Авторы музыки: Jeff Hanneman
Авторы текста: Jeff Hanneman
Angel of Death
Slayer
Angel of death (SOLO)
Album: REIGN IN BLOOD
SLAYER

Tabbed by Rudy Guzman


solo 1
eb:21b-21b-21-19h21p19----19-21b-21-19h21p19---------------------------------------|
Bb:--------------------21--------------------21-18h20p18---------------------------|
Gb:------------------------------------------------------20-18h20p18---------------|
Db:------------------------------------------------------------------20-18h20p18---|
Ab:------------------------------------------------------------------------------20|
Eb:--------------------------------------------------------------------------------|

eb:------------------------------------------------------12-14-15-14-12-|
Bb:----------------------------------------12-13-12-13-15---------------|
Gb:-------------------------------12-14-15------------------------------|
Db:----------------------12-14-15---------------------------------------|
Ab:----------12-13-12-15------------------------------------------------|
Eb:-12-13-15------------------------------------------------------------|


eb:----------------------------------------------------------------------|
Bb:-15-13-12-13-12-------------------------------------------------------|
Gb:----------------14-12--3b--3b--3b-3b-3b--3-2-3-5-3-2------------------|
Db:-----------------------------------------------------5-2-3-5-3-2-3-2--|
Ab:----------------------------------------------------------------------|
Eb:----------------------------------------------------------------------|

eb:------------------------------------------------------15-17-19-------------|
Bb:---------------------------------------------15-16-18----------18-15-16-15-|
Gb:-----------------6-7-9----------11-12-14-12-------------------------------|
Db:-----------5-6-8--------9-10-12--------------------------------------------|
Ab:-5-3-2~~~------------------------------------------------------------------|
Eb:---------------------------------------------------------------------------|



                            solo 2  bar--------
eb:------------------------|-------------------------------------------18b--|
Bb:------------------------|---------------------------------------/17------|
Gb:--17-15-17ahb-----------|-2b-2b-2b--2p0h2p0h2-(2)-2b-5b-9b--17b----------|
Db:------------------------|------------------------------------------------|
Ab:------------------------|------------------------------------------------|
Eb:------------------------|------------------------------------------------|


eb:-16-17-19-17-16------------------------------------------------------------|
Bb:----------------19-16-17-19-17-16------------------------------------------|
Gb:----------------------------------18-15-16-18-16-15------------------------|
Db:-----------------------------------------------------18-15-16-18-16-15-14~~|
Ab:---------------------------------------------------------------------------|
Eb:---------------------------------------------------------------------------|

solo 3
eb:-12-13-15-------12-12-13-12-12-13-15-12-13-15---------------------------|
Bb:----------15-13-------------------------------15-12-13-12---------------|
Gb:----------------------------------------------------------14-12-14-12-11|
Db:------------------------------------------------------------------------|
Ab:------------------------------------------------------------------------|
Eb:------------------------------------------------------------------------|


eb:-------------------------------------------------------------------|
Bb:-------------------------------------------------------------------|
Gb:-------------------------------------------------------------------|
Db:-15-13-12---------------------------------------12-14-15-12-14-15--|
Ab:----------15-13-12-11~~-12-12-12-13-15-12-13-15--------------------|
Eb:-------------------------------------------------------------------|



eb:-----------------------------------------|
Bb:-----------------12-15b~~-15b-17b~~-17--|
Gb:12-13-15-12-13-15------------------------|
Db:-----------------------------------------|
Ab:-----------------------------------------|
Eb:-----------------------------------------|



solo 4
eb:-22-19-20-22-19-20-19-20-22----------------------------------|
Bb:----------------------------22-20-19-------------------------|
Gb:-------------------------------------21-18-19-18-19-21-19-18-|
Db:-------------------------------------------------------------|
Ab:-------------------------------------------------------------|
Eb:-------------------------------------------------------------|


                                                              bar
eb:-----------------------------------------------22b~~-22~~----------13--|
Bb:-----------------------------------------------------------------12----|
Gb:-----------------------------------------------------------------------|
Db:-21-18-19-18-19-21-19-18-----------------------------------------------|
Ab:-------------------------20-17-18-17------------------------17---------|
Eb:-------------------------------------20-18-17-------------16-----------|



Windows notepad txt
Добавлено: 19.06.2012
Другие материалы по этой песне:

Страница создана 28.02.2012
http://primanota.ru/slayer/angel-of-death-chords.htm
Привет, Гость.
Предлагаем пройти революционный курс по гитаре.
Подарок от PrimaNota.Ru, забирай!