PrimaNota.ru - самый крупный в мире бесплатный архив песенных текстов, аккордов, табулатур и нот


Ska-p - El vals del obrero - текст песни, таба, бас-таба, видео

Регистрация Запомнить меня
Войти через:  Facebook Google Twitter Vk Yandex Mail.ru

Ska-p - El vals del obrero - текст песни, таба, бас-таба, видео

Печатать
Просмотров: 118
El vals del obrero
SKA-P
tab por truko4

Intro:

Bass above, guitar below:

 g |-------------------------|-------------------------|
 d |-------------------------|-------------------------|
 a |-------------------------|-------3-----------3-1-2-|
 e |-------------------------|-1-----------1-----------|
   |
 e |-------------------------|---1-1---1-1---1-1---1-1-|
 b |-------------------------|---1-1---1-1---1-1---1-1-|
 g |-------------------------|---2-2---2-2---2-2---2-2-|
 d |-------------------------|-------------------------|
 a |-------------------------|-------------------------|
 e |-------------------------|-------------------------|

            Orgulloso de estar                 Entre el proleta-


 g |-------------------------|-------------------------|
 d |-------------------------|-------------3-----3-----|
 a |-3-----------3-------3-2-|-1-------1-3---------1-2-|
 e |-------3-----------3-----|-------1-----------------|
   |
 e |---3-3---3-3---3-3---3-3-|---1-1---1-1---1-1---1-1-|
 b |---3-3---3-3---3-3---3-3-|---1-1---1-1---1-1---1-1-|
 g |---0-0---0-0---0-0---0-0-|---2-2---2-2---2-2---2-2-|
 d |-------------------------|-------------------------|
 a |-------------------------|-------------------------|
 e |-------------------------|-------------------------|

 riado                es dificil llegar a fin de mes     y tener que su-


 g |-------------------------|-------------------------|
 d |-------------------------|-------------------------|
 a |-3-----------3-----------|-------3-----3-----------|
 e |-------3-----------------|-1-----------------------|
   |
 e |---3-3---3-3-0-----------|---1-1---1-1-0-----------|
 b |---3-3---3-3-1-----------|---1-1---1-1-1-----------|
 g |---0-0---0-0-0-----------|---2-2---2-2-0-----------|
 d |-------------2-----------|-------------2-----------|
 a |-------------3-----------|-------------3-----------|
 e |-------------------------|-------------------------|

 dar y sudar         pa ganar nuestro pan          y este es mi


 g |---------------------------------|
 d |---------------------------------|
 a |-----0-0-1-1-2-3-----0-0-1-1-2-3-|
 e |-1-1-------------1-1-------------|
   |
 e |---1---1---1---1---1---1---1---1-|
 b |---1---1---1---1---1---1---1---1-|
 g |---2---2---2---2---2---2---2---2-|
 d |---------------------------------|
 a |---------------------------------|
 e |---------------------------------|

    sitio,          esta es mi gente.   so-


 g |---------------------------------|
 d |---------------------2-2-3-3-4-4-|
 a |-----0-0-1-1-2-3-3-3-------------|
 e |-1-1-----------------------------|
   |
 e |---1---1---1---1---3---3---3---3-|
 b |---1---1---1---1---3---3---3---3-|
 g |---2---2---2---2---0---0---0---0-|
 d |---------------------------------|
 a |---------------------------------|
 e |---------------------------------|

mos obreros, la clase prefere-


 g |-----2-2-3-3-4-4-5-5-7-7-8-8-9-9-|
 d |-5-5-----------------------------|
 a |---------------------------------|
 e |---------------------------------|
   |
 e |---3---3---3---3---3---3---3---3-|
 b |---3---3---3---3---3---3---3---3-|
 g |---0---0---0---0---0---0---0---0-|
 d |---------------------------------|
 a |---------------------------------|
 e |---------------------------------|

               -ente


 g |-10-10-9-9-8-8-7\------------------|
 d |-----------------------0-0-3-3-----|
 a |-------------------1-1---------3-0-|
 e |-----------------------------------|
   |
 e |----3----3---3---3---1---1---1---1-|
 b |----3----3---3---3---1---1---1---1-|
 g |----0----0---0---0---2---2---2---2-|
 d |-----------------------------------|
 a |-----------------------------------|
 e |-----------------------------------|

                    por eso hermano proletario con


 g |---------------------------------|
 d |---------------------2---5-3-2-0-|
 a |-----0---1---2-2-3---------------|
 e |-1-------------------------------|
   |
 e |---1---1---1---1---0---0---0---0-|
 b |---1---1---1---1---1---1---1---1-|
 g |---2---2---2---2---0---0---0---0-|
 d |---------------------------------|
 a |---------------------------------|
 e |---------------------------------|

orgullo yo te canto esta canción


 g |---------------------------------|
 d |---------------------------------|
 a |-3-------------------------------|
 e |---------------------------------|
   |
 e |-0-------------------------------|
 b |-1-------------------------------|
 g |-0-------------------------------|
 d |---------------------------------|
 a |---------------------------------|
 e |---------------------------------|

       somos la revolución

-------------------------------------------------------------|
-------------------------------------------------------------|


para guitarra sola:

 e |-------------------------|---1-1---1-1---1-1-------|
 b |-------------------------|---1-1---1-1---1-1-------|
 g |-------------------------|-------------------------|
 d |-------------------------|-------------------------|
 a |-------------------------|-------3-----------3-1-2-|
 e |-------------------------|-1-----------1-----------|

 e |---3-3---3-3---3-3-------|---1-1---------1-1-------|
 b |---3-3---3-3---3-3-------|---1-1---------1-1-------|
 g |-------------------------|-------------------------|
 d |-------------------------|-------------3-----3-----|
 a |-3-----------3-------3-2-|-1-------1-3---------1-2-|
 e |-------3-----------3-----|-------1-----------------|

 e |---3-3---3-3-0-----------|---1-1---1-1-0-----------|
 b |---3-3---3-3-1-----------|---1-1---1-1-1-----------|
 g |-------------0-----------|-------------0-----------|
 d |-------------2-----------|-------------2-----------|
 a |-3-----------3-----------|-------3-----3-----------|
 e |-------3-----------------|-1-----------------------|

el resto tal cual esta escrito
Добавлено: 12.09.2013
Другие материалы по этой песне:

Страница создана 23.02.2012
http://primanota.ru/ska-p/el-vals-del-obrero-chords.htm
Привет, Гость.
Предлагаем пройти революционный курс по гитаре.
Подарок от PrimaNota.Ru, забирай!