PrimaNota.ru - самый крупный в мире бесплатный архив песенных текстов, аккордов, табулатур и нот


Ska-p - Planeta Eskoria - текст песни, таба, видео

Регистрация Запомнить меня
Войти через:  Facebook Google Twitter Vk Yandex Mail.ru

Ska-p - Planeta Eskoria - текст песни, таба, видео

Печатать
Просмотров: 105
Guitar Tab

Standard tuning (E A D G B E)

'Ska-P - Planeta Eskoria'

4/4

Intro (Chorus effect)

Bass Rif

Bass

|---------------------------|

|-------------------1-1-5-4-| 4 Times

|----1---1--5-4-3--3-3------|

|-3-3---3-------------------|

|

| Guitar 1

|

|---------------------------|

|---------------------------|

|---------------------------| 4 Times

|-------------------1-1-5-4-|

|----1---1--5-4-3--3-3------|

|-3-3---3-------------------|

 

Strum Part

 

Guitar 1

G A# C D#

|-3-3-1-1-3-3-6-6----|

|-3-3-3-3-5-5-8-8----|

|-4-4-3-3-5-5-8-8----| 4 Times

|--------------------|

|--------------------|

|--------------------|

|

| Guitar 2

| G A# C D#

|-3-3-1-1-3-3-6-6----|

|-3-3-3-3-5-5-8-8----|

|-4-4-3-3-5-5-8-8----| 4 Times

|--------------------|

|--------------------|

|--------------------|

 

Verse

 

Guitar 1

PM................................................

|--------------------------------------------------|

|--------------------------------------------------|

|--------------------------------------------------| 2 Times

|--------------------------------------------------|

|-5-5-5-5-5-5-8-8-8-8-8-10-10-10-10-10-10-10-10----|

|-3-3-3-3-3-3-6-6-6-6-6--8--8--8--8--8--8--8--8----|

|

| Guitar 2

|

|---------------------------|

|---------------------------|

|---------------------------| 2 Times. The second time the rif ends with
an open G string.

|-------------------3--2--3-| Then the second rif of the second guitar
starts.

|-----3--1------------------|

|--3------------------------|

 

Guitar 1

PM................................................................

|-----------------------|------------------------------------------|

|-----------------------|------------------------------------------|

|-----------------------|------------------------------------------| 2
Times. The second time, we play the last power

|-----------------------|------------------------------------------|
chord (D# 11/13) without palm muting the

|-5-5-5-5-5-5-8-8-8-8-8-|-10-10-10-10-10-10-11-11-11-11-11-11-11-11|
strings and with the distortion effect.

|-3-3-3-3-3-3-6-6-6-6-6-|--8--8--8--8--8--8-13-13-13-13-13-13-13-13|

|

| Guitar 2

|

|----3--1----1--3-------|-----3--1----6--5-----|

|----------3------------|-----------3----------|

|-----------------------|----------------------| 2 Times

|-----------------------|----------------------|

|-----------------------|----------------------|

|-----------------------|----------------------|

 

Chorus type I

Distortion

 

Guitar 1

G A# C D#

|------------------------------------|

|------------------------------------|

|------------------------------------| 2 Times

|-5-5-5--8-8-8----10-10-10--13-13-13-|

|-5-5-5--8-8-8----10-10-10--13-13-13-|

|-3-3-3--6-6-6----8--8--8---11-11-11-|

|

|

| Guitar 2

|

|------------------------------------|

|------------------------------------|

|--5b7r5--3--------3--5--5b7r5--3--5-| 2 Times

|------------5--5--------------------|

|------------------------------------|

|------------------------------------|

 

Guitar 1

G A# C D#

|------------------------------------|

|------------------------------------|

|------------------------------------| 2 Times

|-5-5-5--8-8-8----10-10-10--13-13-13-|

|-5-5-5--8-8-8----10-10-10--13-13-13-|

|-3-3-3--6-6-6----8--8--8---11-11-11-|

|

| Guitar 2

|

|-8b10r8--6--------6--8--8b10r8--6--8|

|------------8--8--------------------|

|------------------------------------| 2 Times

|------------------------------------|

|------------------------------------|

|------------------------------------|

 

Strum part (same pattern)

 

 

| Rif di Basso 2 Times

|

| Guitar 1

|

|---------------------|

|---------------------|

|---------------------|

|-5-5-5-5-5-5-5-5-5-5-|

|---------------------|

|---------------------|

 

Verse ..

 

Chorus ..

 

D D#

Estás en el Planeta Eskoria, bienvenido al Planeta Eskoria

 

Chorus type II ..(now the two guitars play the same thing)

Distortion

 

Guitar 1

G A# C D#

|---------------------------------------------|

|---------------------------------------------|

|---------------------------------------------| 4 Times

|-5-5-5-5---8-----10-10-10-10-10--13-13-13-13-|

|-5-5-5-5---8-----10-10-10-10-10--13-13-13-13-|

|-3-3-3-3---6-----8--8--8--8--8---11-11-11-11-|

|

| Guitar 2

|

| G A# C D#

|---------------------------------------------|

|---------------------------------------------|

|---------------------------------------------| 4 Times

|-5-5-5-5---8-----10-10-10-10-10--13-13-13-13-|

|-5-5-5-5---8-----10-10-10-10-10--13-13-13-13-|

|-3-3-3-3---6-----8--8--8--8--8---11-11-11-11-|

 

Bridge

 

Qué suerte hay que tener al nacer... 4 Times

Guitar 1

PM................................................................

|-----------------------|------------------------------------------|

|-----------------------|------------------------------------------|

|-----------------------|------------------------------------------| 2
Times. The second time, we play the last power

|-----------------------|------------------------------------------|
chord (D# 11/13) without palm muting the

|-5-5-5-5-5-5-8-8-8-8-8-|-10-10-10-10-10-10-11-11-11-11-11-11-11-11|
strings and with the distortion effect.

|-3-3-3-3-3-3-6-6-6-6-6-|--8--8--8--8--8--8-13-13-13-13-13-13-13-13|

|

| Guitar 2

|

|----3--1----1--3-------|-----3--1----6--5-----|

|----------3------------|-----------3----------|

|-----------------------|----------------------| 2 Times

|-----------------------|----------------------|

|-----------------------|----------------------|

|-----------------------|----------------------|

 

Chorus type I

Stacco type II

| Guitar 1

|

| D D#

| Estás en el Planeta Eskoria, bienvenido al Planeta Eskoria

|

| Guitar 2

|

| D D#

|------------------------------------------|

|------------------------------------------|

|------5b7()--------------5---5---3()------|

|------------------------------------------|

|------------------------------------------|

|------------------------------------------|

 

Chorus type II (i primo due tempi)

After the first two patterns of power chords

the second guitar plays some notes on a G minor pentatonic scale played
on the fifth position.

I think it should be like this.

Guitar 2

|--15b17--15b17--15b17--13--15--13--15b17()--15b17--15--15--15b17()--|

|--------------------------------------------------------------------|

|--------------------------------------------------------------------|

|--------------------------------------------------------------------|

|--------------------------------------------------------------------|

|--------------------------------------------------------------------|

 

Interlude

Guitar 1

PM...............................................

|-------------------------------------------------------|

|-------------------------------------------------------|

|-------------------------------------------------------|

|--5-3-5---5-5-3-5---5-5-3-5---5-3-5---5-5-3-5---3-6-6--|

|--5-3-5---5-5-3-5---5-5-3-5---5-3-5---5-5-3-5---3-6-6--|

|--3-1-3---3-3-1-3---3-3-1-3---3-1-3---3-3-1-3---1-4-4--|

|

| Guitar 2

|

|PM...............................................

|-------------------------------------------------------|

|-------------------------------------------------------|

|-------------------------------------------------------|

|--5-3-5---5-5-3-5---5-5-3-5---5-3-5---5-5-3-5---3-6-6--|

|--5-3-5---5-5-3-5---5-5-3-5---5-3-5---5-5-3-5---3-6-6--|

|--3-1-3---3-3-1-3---3-3-1-3---3-1-3---3-3-1-3---1-4-4--|

Guitar 1

|PM...............................................

|-------------------------------------------------------|

|-------------------------------------------------------|

|-------------------------------------------------------|

|--5-3-5---5-5-3-5---5-5-3-5---5-3-5---5-5-3-5---3-6-8--|

|--5-3-5---5-5-3-5---5-5-3-5---5-3-5---5-5-3-5---3-6-8--|

|--3-1-3---3-3-1-3---3-3-1-3---3-1-3---3-3-1-3---1-4-6--|

|

| Guitar 2

|PM...............................................

|-------------------------------------------------------|

|-------------------------------------------------------|

|-------------------------------------------------------|

|--5-3-5---5-5-3-5---5-5-3-5---5-3-5---5-5-3-5---3-6-8--|

|--5-3-5---5-5-3-5---5-5-3-5---5-3-5---5-5-3-5---3-6-8--|

|--3-1-3---3-3-1-3---3-3-1-3---3-1-3---3-3-1-3---1-4-6--|

 

Guitar 1

PM...............................................

|-------------------------------------------------------|

|-------------------------------------------------------|

|-------------------------------------------------------|

|--5-3-5---5-5-3-5---5-5-3-5---5-3-5---5-5-3-5---3-6-6--|

|--5-3-5---5-5-3-5---5-5-3-5---5-3-5---5-5-3-5---3-6-6--|

|--3-1-3---3-3-1-3---3-3-1-3---3-1-3---3-3-1-3---1-4-4--|

|

| Guitar 2

|

|PM...............................................

|-------------------------------------------------------|

|-------------------------------------------------------|

|-------------------------------------------------------|

|--5-3-5---5-5-3-5---5-5-3-5---5-3-5---5-5-3-5---3-6-6--|

|--5-3-5---5-5-3-5---5-5-3-5---5-3-5---5-5-3-5---3-6-6--|

|--3-1-3---3-3-1-3---3-3-1-3---3-1-3---3-3-1-3---1-4-4--|

Guitar 1

|PM...........................................

|-----------------------------------------------|

|-----------------------------------------------|

|-----------------------------------------------|

|--5-3-5---5-5-3-5---5-5-3-5---5-3-5---5-5-3-5--|

|--5-3-5---5-5-3-5---5-5-3-5---5-3-5---5-5-3-5--|

|--3-1-3---3-3-1-3---3-3-1-3---3-1-3---3-3-1-3--|

|

| Guitar 2

|PM...........................................

|----------------------------------------------------------|

|----------------------------------------------------------|

|----------------------------------------------------------|

|--5-3-5---5-5-3-5---5-5-3-5---5-3-5---5-5-3-5-------------|

|--5-3-5---5-5-3-5---5-5-3-5---5-3-5---5-5-3-5-------------|

|--3-1-3---3-3-1-3---3-3-1-3---3-1-3---3-3-1-3--pickslide--|

Guitar Solo

 

Guitar 1

G A# C D#

|------------------------------------------------|

|------------------------------------------------|

|------------------------------------------------|

|----5-5-5----8-8-8------10-10-10---13-13-13-----|

|----5-5-5----8-8-8------10-10-10---13-13-13-----|

|----3-3-3----6-6-6------8--8--8----11-11-11-----|

|

| Guitar 2

|

|--15-13-15-13-15-13-15-13-15b17tr--13-----------|

|--------------------------------------15p13-----|

|--------------------------------------------15--|

|------------------------------------------------|

|------------------------------------------------|

|------------------------------------------------|

 

Guitar 1

PM.......................

|-------------------------|

|-------------------------|

|-------------------------|

|-5-3-5--5-5-3-5--5-5-3-5-|

|-5-3-5--5-5-3-5--5-5-3-5-|

|-3-1-3--3-3-1-3--3-3-1-3-|

|

| Guitar 2

|

|-------------------------|

|--15()-----15p13---------|

|--17b19()---------15-15--|

|-------------------------|

|-------------------------|

|-------------------------|

Guitar 1

G A# C D#

|------------------------------------------------|

|------------------------------------------------|

|------------------------------------------------|

|----5-5-5----8-8-8------10-10-10---13-13-13-----|

|----5-5-5----8-8-8------10-10-10---13-13-13-----|

|----3-3-3----6-6-6------8--8--8----11-11-11-----|

|

| Guitar 2

|

|------------------------------------------------|

|------------------------------------------------|

|-----3h5p3-3--3h5p3-3--3h5p3h5p3h5p3--5b7r5-----|

|------------------------------------------------|

|------------------------------------------------|

|------------------------------------------------|

 

Guitar 1

PM........................................

|----------------------------------------------|

|----------------------------------------------|

|----------------------------------------------|

|-----5--3--5-----5--5--3--5-----5--5--3--5----|

|-----5--3--5-----5--5--3--5-----5--5--3--5----|

|-----3--1--3-----3--3--1--3-----3--3--1--3----|

|

| Guitar 2

|

|--13b15r13--10b12r10---------------------------|

|----------------------13b15r13--11b13--12------|

|-------------------------------------------12--|

|-----------------------------------------------|

|-----------------------------------------------|

|-----------------------------------------------|

Guitar 1

D D D# D

|----------------------------------------------------|

|----------------------------------------------------|

|----------------------------------------------------|

|----------12()---------12----13()---------13--------|

|----------12()---------12----13()---------13--------|

|----------10()---------10----11()---------11--------|

|

| Guitar 2

|

|---------------------------|-------------------------|

|---------------------------|-------------------------|

|--14--15-15--17-17--19-19--|--14-14--15-15--14-14s0--|

|--12--12-12--12-12--12-12--|--13-13--13-13--13-13s0--|

|---------------------------|-------------------------|

|---------------------------|-------------------------|

 

Chorus type II 2 Times

 

Ending

Clean Guitar

G

|--3-3-3-3-3-3-3-3--|

|--3-3-3-3-3-3-3-3--|

|--4-4-4-4-4-4-4-4--|

|-------------------|

|-------------------|

|-------------------|

 

Tabbed by Emilio "RaZoR" Carrino.


     
Добавлено: 03.12.2013
Другие материалы по этой песне:

Страница создана 14.05.2012
http://primanota.ru/ska-p/planeta-eskoria-chords.htm
Привет, Гость.
Предлагаем пройти революционный курс по гитаре.
Подарок от PrimaNota.Ru, забирай!