PrimaNota.ru - самый крупный в мире бесплатный архив песенных текстов, аккордов, табулатур и нот


Ska-p - Estampida - текст песни, бас-таба, видео

Регистрация Запомнить меня
Войти через:  Facebook Google Twitter Vk Yandex Mail.ru

Ska-p - Estampida - текст песни, бас-таба, видео

Печатать
Просмотров: 92
Song name: Estampida
Artist: Ska-P
Album: Que Corra La Voz
Tuning: Standard (EADG)

G|---------------------|
D|---------------------|
A|-3-3-3-3-3-3-3-3-3-3-|
E|---------------------| x1

G|-------------------------------------------------------------------|
D|.---------------------------------------------------8-------------.|
A|.-3-------3-------3-------3-6-3---3-------3-------6---6-6---8-----.|
E|------3-6-----3-6-----3-6-------6-----3-6-----3-6---------6---6-6--| x2

"Agazapado entre las sombras..."
G|-----|-----|------------------|
D|.----|-----|---8-------------.|
A|.-3--|-1-3-|-6---6-6---8-----.|
E|-----|-----|---------6---6-6--| x2

"Ehi no, basta ya, ven unamonos..."
G|-----------------------------------|
D|.---------------------------------.|
A|.-3-3-3-3-3-3-3-3-6-6-6-6-8-6-5---.|
E|--------------------------------6--| x4

G|-------------------------------------------------------------------|
D|.---------------------------------------------------8-------------.|
A|.-3-------3-------3-------3-6-3---3-------3-------6---6-6---8-----.|
E|------3-6-----3-6-----3-6-------6-----3-6-----3-6---------6---6-6--| x2

"Mientras corro voy pensando..."
G|-----|-----|------------------|
D|.----|-----|---8-------------.|
A|.-3--|-1-3-|-6---6-6---8-----.|
E|-----|-----|---------6---6-6--| x2

"Ehi no, basta ya, ven unamonos..."
G|-----------------------------------|
D|.---------------------------------.|
A|.-3-3-3-3-3-3-3-3-6-6-6-6-8-6-5---.|
E|--------------------------------6--| x4

"Ha comenzado la estampida!"
G|---------------------------------|
D|---------------------------------|
A|---------------------------------|
E|-3-3-3-3-3-3-3-3-3-3-3-3-3-3-3-3-| x1

"Tumba tumbaremos al depredador..."
G|----------------------------------|
D|.--------------------------------.|
A|.-3-3-3-3---------6-6-6-6-8-6-5--.|
E|----------4-4-4-4---------------6-| x4

"Al depredador..."
G|----------------------------------|
D|----------------------------------|
A|-3-3-3-3-3-3-3-3------------------|
E|-----------------4-4-4-4-4-4-4-4--| x1

G|-------------------------------------------------------------------|
D|.---------------------------------------------------8-------------.|
A|.-3-------3-------3-------3-6-3---3-------3-------6---6-6---8-----.|
E|------3-6-----3-6-----3-6-------6-----3-6-----3-6---------6---6-6--| x2

"Aceptamos un sistema..."
G|----|-----|-----------------|
D|----|-----|---8-------------|
A|-3--|-1-3-|-6---6-6---8-----|
E|----|-----|---------6---6-6-| x1

"El pueblo vendicio..."
G|---------------------------------------------------------------|
D|.-------------------------------------------------------------.|
A|.-8-8---8-8-8---8-8-8---8-8-8---8/4-4---4-4-4---4-6-6---6-6-6-.|
E|---------------------------------------------------------------| x2

G|-----------------------------------|
D|.---------------------------------.|
A|.-3-3-3-3-3-3-3-3-6-6-6-6-8-6-5---.|
E|--------------------------------6--| x2

"Ha comenzado la estampida!"
G|---------------------------------|
D|---------------------------------|
A|---------------------------------|
E|-3-3-3-3-3-3-3-3-3-3-3-3-3-3-3-3-| x1

"Tumba tumbaremos al depredador..."
G|----------------------------------|
D|.--------------------------------.|
A|.-3-3-3-3---------6-6-6-6-8-6-5--.|
E|----------4-4-4-4---------------6-| x4

"Al depredador..."
G|----------------------------------|
D|----------------------------------|
A|-3-3-3-3-3-3-3-3------------------|
E|-----------------4-4-4-4-4-4-4-4--| x1

G|-------------------------------------------------------------|
D|-------------------------------------------------------------|
A|-3-------3-------3-------3-6-3---3-------3-------6-6-6-------|
E|-----3-6-----3-6-----3-6-------6-----3-6-----3-6-------6-6-6-| x1

G|----|-----|-------------|----|----|-------------|
D|----|-----|-------------|----|----|-------------|
A|-3--|-1-3-|-6-6-6-------|-3--|-3--|-6-6-6-------|
E|----|-----|-------6-6-6-|----|----|-------6-6-6-| x1

"Tumba tumbaremos al depredador..."
G|----------------------------------|
D|.--------------------------------.|
A|.-3-3-3-3---------6-6-6-6-8-6-5--.|
E|----------4-4-4-4---------------6-| x8

"Al depredador..."
G|----------------------------------|
D|----------------------------------|
A|-3-3-3-3-3-3-3-3------------------|
E|-----------------4-4-4-4-4-4-4-4--| x1

G|-----------------------------------|----|
D|-----------------------------------|----|
A|-3-------3-------3-------3-6-3---3-|----|
E|-----3-6-----3-6-----3-6-------6---|----| x1

G|-----------------------------|
D|-----------------------------|
A|-3-3-3-3-3-3-3-3-3-3-3-3-3-3-|
E|-----------------------------| x1

Tabbed By Sandstorm
sandstorm@fastwebnet.it

Hasta siempre!
Добавлено: 18.12.2013
Другие материалы по этой песне:

Страница создана 09.06.2012
http://primanota.ru/ska-p/estampida-chords.htm
Привет, Гость.
Предлагаем пройти революционный курс по гитаре.
Подарок от PrimaNota.Ru, забирай!