PrimaNota.ru - самый крупный в мире бесплатный архив песенных текстов, аккордов, табулатур и нот


Silverchair - My Favorite Thing - таба, видео

Регистрация Запомнить меня
Войти через:  Facebook Google Twitter Vk Yandex Mail.ru

Silverchair - My Favorite Thing - таба, видео

Печатать
Просмотров: 119
My Favorite Thing
by Silverchair

This is when Silverchair started to change drastically
for the worst, according to my belief, but a friend wanted this
tabbed out for his birthday, so i did it. Its actually kinda tough,
but i miss frogstomp and freak show days. Now silverchair is fucking
disco or some shit. What a horrible thing to witness.

INTRO/VERSE
|------------------------------------------|
|:-----1---------3------------------0-----:|
|--------0---------2------------------0----|
|--2-2-----2-0-0-----0-4-4-5-4-3-2------2--|
|:-3---------0---------2-2-------2--------:|
|----------------------0-0-------0---------|



VERSE
|-----1---------3--------------------------|
|-------1---------3---------------0--------|
|---3-----3---5-----5---------------0------|
|-3---------5---------4-4-5-4-3-2-----2----|
|-1---------3---------2-2-------2----------|
|---------------------0-0-------0----------|



VERSE
|------------------------------------------|
|:-----1---------3------------------0-----:|
|--------0---------2------------------0----|
|--2-2-----2-0-0-----0-4-4-5-4-3-2------2--|
|:-3---------0---------2-2-------2--------:|
|----------------------0-0-------0---------|



VERSE
|-----1-----------------------------------------|
|-------1-----2-------0-------1----------1------|
|---3-------2---2-------0-------2----------2----|
|-3-3-----2-2-------2-------3-----3----3-----3--|
|-1-------0-------2-2-----3-3--------3----------|
|-----------------0-------1----------1----------|



CHORUS
--------------0000000000-------11111-0000000000-|
--1-111-33333-0000000000-11111-11111-0000000000-|
--0-000-22222-2222211111-00000-22222-0000000000-|
--2-222-00000-2222222222-22222-33333-2222222222-|
--3-333-00000-2222222222-33333-33333-2222222222-|
--------------0000000000-------11111-0000000000-|


CHORUS
--------------0000000000---------------------------------1111----|
--1-111-33333-0000000000-1-1-0-0000-1-1-3-11111111-11111-1111----|
--0-000-22222-2222211111-0-2-0-0000-0-0-2-22222222-00000-2222----|
--2-222-00000-2222222222-2-2-2-2222-2-0-0-22222222-22222-3333----|
--3-333-00000-2222222222-3-0-2-2222-3-2-0-00000000-33333-3333----|
--------------0000000000-----0-0000----------------------1111----|


CHORUS
-000000000000000000000-
-000000000000000000000-
-000000000000000000000-
-222222222222222222222-
-222222222222222222222-
-000000000000000000000-


VERSE TWO
|------------------------------------------|
|:-----1---------3------------------0-----:|
|--------0---------2------------------0----|
|--2-2-----2-0-0-----0-4-4-5-4-3-2------2--|
|:-3---------0---------2-2-------2--------:|
|----------------------0-0-------0---------|


VERSE                “…of angels…”
||-------------------||--0-0000-33333-|
||-------------------||--x-xxxx-33333-|
||-rest-for-piano----||--2-2222-00000-|
||-------------------||--2-2222-00000-|
||-------------------||--0-0000-xxxxx-|
||-------------------||---------33333-|



VERSE
|-----1-----------------------------------------|
|-------1-----2-------0-------1----------1------|
|---3-------2---2-------0-----2-2--------2-2----|
|-3-3-----2-2-------2-----3-3-3-3-3--3-3-3-3-3--|
|-1-------0-------2-2-----3-3---3-3--3-3---3-3--|
|-----------------0-------1-------1--1-------1--|



VERSE
---------------------|
---------------------|
------22-2-22222222--|
--2-2-33-4-44444444--|
--2-2-33-5-55555555--|
--0-0----2-22222222--|



CHORUS
--------------0000000000-------11111-0000000000-|
--1-111-33333-0000000000-11111-11111-0000000000-|
--0-000-22222-2222211111-00000-22222-0000000000-|
--2-222-00000-2222222222-22222-33333-2222222222-|
--3-333-00000-2222222222-33333-33333-2222222222-|
--------------0000000000-------11111-0000000000-|


CHORUS
--------------0000000000---------------------------------|
--1-111-33333-0000000000-1-1-0-0000-1-1-3-11111111-11111-|
--0-000-22222-2222211111-0-2-0-0000-0-0-2-22222222-00000-|
--2-222-00000-2222222222-2-2-2-2222-2-0-0-22222222-22222-|
--3-333-00000-2222222222-3-0-2-2222-3-2-0-00000000-33333-|
--------------0000000000-----0-0000----------------------|


CHORUS           |“…And I feel like letting go…”
-----------------|---------------------------------------------|
-11111111-11111--|-------------3333333333-11111111111111111111-|
-22222222-00000--|--0000000000-xxxxxxxxxx-00000000000000000000-|
-22222222-22222--|--2222222222-0000000000-22222222222222222222-|
-00000000-33333--|--2222222222-5555555555-33333333333333333333-|
-----------------|--0000000000-2222222222----------------------|


“…And I feel like letting go…”
---------------------------------------------------------------|
-----------3333333333-1----------------------------------------|
-----------xxxxxxxxxx-0----------------------------------------|
2222222222-0000000000-2----------------------------------------|
2222222222-5555555555-3----------------------------------------|
0000000000-2222222222------------------------------------------|



-------------------------------------------------|
---------1----------3------3---3----------3------|
---0-------0----------2----2-----2----1-----1----|
-------2-----0----0-----0--0-0-----0--0-0-----0--|
-0---3---------------------2----------2----------|
----------------2----------0----------0----------|



-------------------------------------|
----1------------1------------0-0000-|
------0------------0----------0-0000-|
--2-----0^2-2^3------3--3-333-2-2222-|
--3---------------------3-333-2-2222-|
------------------------1-111-0-0000-|




CHORUS
--------------0000000000-------11111-0000000000-|
--1-111-33333-0000000000-11111-11111-0000000000-|
--0-000-22222-2222211111-00000-22222-0000000000-|
--2-222-00000-2222222222-22222-33333-2222222222-|
--3-333-00000-2222222222-33333-33333-2222222222-|
--------------0000000000-------11111-0000000000-|



CHORUS
--------------0000000000-------11111-0000000000-|
--1-111-33333-0000000000-11111-11111-0000000000-|
--0-000-22222-2222211111-00000-22222-0000000000-|
--2-222-00000-2222222222-22222-33333-2222222222-|
--3-333-00000-2222222222-33333-33333-2222222222-|
--------------0000000000-------11111-0000000000-|




CHORUS
--------------0000000000---------------------------------|
--1-111-33333-0000000000-1-1-0-0000-1-1-3-11111111-11111-|
--0-000-22222-2222211111-0-2-0-0000-0-0-2-22222222-00000-|
--2-222-00000-2222222222-2-2-2-2222-2-0-0-22222222-22222-|
--3-333-00000-2222222222-3-0-2-2222-3-2-0-00000000-33333-|
--------------0000000000-----0-0000----------------------|



CHORUS
-----------------------------------------------------------------|
-11111111-11111--------------------------------------------------|
-22222222-00000-------------------3-0-2-------------------3-0-2--|
-22222222-22222-22222-00000-55555-3-0-2-22222-00000-55555-3-0-2--|
-00000000-33333-22222-55555-55555-1-x-0-22222-55555-55555-1-x-0--|
----------------00000-22222-33333---3---00000-22222-33333---3----|



------------------------------------------|
------------------------------------------|
-------------------3-------------2--------|
22222-00000-55555--3------4------2--------|
22222-55555-55555--1------4------0--------|
00000-22222-33333---------2---------------|
Добавлено: 08.05.2012
Другие материалы по этой песне:
  • Аккорды и текст

Страница создана 08.05.2012
http://primanota.ru/silverchair/my-favorite-thing-chords.htm
Привет, Гость.
Предлагаем пройти революционный курс по гитаре.
Подарок от PrimaNota.Ru, забирай!