PrimaNota.ru - самый крупный в мире бесплатный архив песенных текстов, аккордов, табулатур и нот


Sick Puppies - The Bottom - текст песни, таба, бас-таба, видео

Регистрация Запомнить меня
Войти через:  Facebook Google Twitter Vk Yandex Mail.ru

Sick Puppies - The Bottom - текст песни, таба, бас-таба, видео

Печатать
Просмотров: 189
Sick Puppies
The Bottom
Dressed Up as life
Drop C: CGCFAD

Legend: /slide up   \slide down   p pull off   h hammer-on   . palm mute
        
        x scratch note


Intro                       x3
|----------------------------|----------------------------------------------|
|----------------------------|----------------------------------------------|
|---------------3-44-3-4--3-4|-----------------------7---7---------6-6-6----|
|-0-2-5-2--0-2---------------|-0-2-5-2--0-2--7/9-9-9---9---7/8-8-8----------|
|-0-2-5-2--0-2---------------|-0-2-5-2--0-2---------------------------------|
|-0-2-5-2--0-2---------------|-0-2-5-2--0-2---------------------------------|

Pre-Verse
|------------3--------------------------3-----------------------------------|
|------------3--------------------------3-----------------------------------|
|------------4--------3-----------------4--------3--------------------------|
|-0-2p0-2--2-5--0-2p0-3-3--0-3-3p2-2--2-5--0-2p0-3-3------------------------|
|-0-2p0-2--2-5--0-2p0-1-3--0-3-3p2-2--2-5--0-2p0-1-3------------------------|
|-0-2p0-2--2----0-2p0---3--0-3-3p2-2--2----0-2p0---3--3-3-3-3-3-3-3---------|
                                                      . . . . . . .
|------------3--------------------------3--2-2--2-2-------------------------|
|------------3--------------------------3--2-2--2-2-------------------------|
|------------4--------3-----------------4--3-3--3-3-------------------------|
|---2p0-2--2-5--0-2p0-3-3--0-3-3p2-2--2-5--4-4--4-4-0-2-3-------------------|
|---2p0-2--2-5--0-2p0-1-3--0-3-3p2-2--2-5--4-4--4-4-0-2-3-------------------|
|---2p0-2--2----0-2p0---3--0-3-3p2-2--2-------------0-2-3-------------------|

Verse 1
|---------------------------------------------------------------------------|
|---------------------------------------------------------------------------|
|---------------------------------------------------------------------------|
|-2-0-2------------0-2-0-2-------------2-0-2--------------0-2-0-2-----------|
|-2-0-2------------0-2-0-2-------------2-0-2--------------0-2-0-2-----------|
|-2-0-2------------0-2-0-2-------------2-0-2--------------0-2-0-2-----------|

Pre-Chorus
|----------3~------------3~~------------3~------------3~~---------|
|----------3~------------3~~------------3~------------3~~---------|
|----------4~------------4~~------------4~------------4~~---------|
|-2p0-2--2-5~----0-2p0-2-5~~---2p0-2--2-5~----0-2p0-2-5~~----2----|
|-2p0-2--2-5~----0-2p0-2-5~~---2p0-2--2-5~----0-2p0-2-5~~----2----|
|-2p0-2--2-------0-2p0-2-------2p0-2--2-------0-2p0-2--------2----|

|-------------------------------------------------|
|-------------------------------------------------|
|-------------------------------------------------|
|-9-12-9-12-9-12-9-12-9-12-9-11-9-11-9-11-9-11----|
|-------------------------------------------------|
|-------------------------------------------------|
  . . . . . . . . . . . . . . . . . 
Chorus                                                                    x2
|---------------------------------------------------------------------------|
|---------------------------------------------------------------------------|
|---------------------------------------------------------------------------|
|2--2--2x2x-9--9--9x9x-10--10--10x10-7--7--7x7x-6--6--5--5------------------|
|2--2--2x2x-9--9--9x9x-10--10--10x10-7--7--7x7x-6--6--5--5-2h3-2h3-2h3-2h3-2|
|2--2--2x2x-9--9--9x9x-10--10--10x10-7--7--7x7x-6--6--5--5------------------|
        x1
|--------|
|--------|
|--/4----|
|--------|
|--------|
|--------|

Pre-Verse 2
|------------5~----------------------------------5----------------|
|------------5~----------------------------------5----------------|
|------------4~---------3------------------------4----------------|
|-0-2p0-2--2-3~---0-2p0-3-3-------------2p0-2--2-3--x----5---3----|
|-0-2p0-2--2-3~---0-2p0-1-3-------------2p0-2--2-3--x5/7---7---6--|
|-0-2p0-2--2------0-2p0---3-3-3-3-3-3-3-2p0-2--2----x-------------|
                            . . . . . .
Verse 2
|----------------------------------------------------------------------|
|----------------------------------------------------------------------|
|-------------3-44-3-4-3-44-3-4-3-4------------------------------------|
|-2----3----2------------------------2----3----5~~~~---5-4-3-2--2-2-3--|
|-2----3----2------------------------2----3----5~~~~---5-4-3-2--2-2-3--|
|-2----3----2------------------------2----3----5~~~~---5-4-3-2--2-2-3--|

|------------------------------------3~~~~--2~~~~---------------------------|
|------------------------------------3~~~~--2~~~~---------------------------|
|------------------------------------4~~~~--3~~~~---------------------------|
|-3~--5---5~--7---8\-2-0-2--2~--3----5~~~~--4~~~~---------------------------|
|-3~--5---5~--7---8\-2-0-2--2~--3----5~~~~--4~~~~---------------------------|
|-3~--5---5~--7---8\-2-0-2--2~--3------------------3-3-3-3-3-3-3-3-3-3-3-3--|
                                                   . . . . . . . . . . . .
Chorus 2                                                                  
|---------------------------------------------------------------------------|
|---------------------------------------------------------------------------|
|---------------------------------------------------------------------------|
|2--2--x2x2x-9--9--x9x9x-10--10--x10x10x-7--7--x7x7x-6-x6--5-x5-------------|
|2--2--x2x2x-9--9--x9x9x-10--10--x10x10x-7--7--x7x7x-6-x6--5-x5-2h3-2h3-2h3-|
|2--2--x2x2x-9--9--x9x9x-10--10--x10x10x-7--7--x7x7x-6-x6--5-x5-------------|

|---------------------------------------------------------------------------|
|---------------------------------------------------------------------------|
|--------/4-----------------------------------------------------------------|
|------------2--2--x2x2x-9--9--x9x9x-10--10--x10x10x-7--7--x7x7x-6-x6--5-x5-|
|-2h3--2-----2--2--x2x2x-9--9--x9x9x-10--10--x10x10x-7--7--x7x7x-6-x6--5-x5-|
|------------2--2--x2x2x-9--9--x9x9x-10--10--x10x10x-7--7--x7x7x-6-x6--5-x5-|

Interlude                        x4                                    x3
|---------------------------------|-------------------------------------|
|---------------------------------|-------------------------------------|
|---------------------------------|-------------------------------------|
|--10--10--10--10--10--10--10--10-|-9-9xxx-9-9xxx-9-9xxx----------------|
|--10--10--10--10--10--10--10--10-|-9-9xxx-9-9xxx-9-9xxx----------------|
|--10--10--10--10--10--10--10--10-|-9-9xxx-9-9xxx-9-9xxx-9p7-9p7-9p7----|


This part is originally bass, but this is on guitar(which u can use on bass) 
                                   |-------------------------------------------|
|-------------------------------------------|
|-------------------------------------------|
|-------------------------------------------|
|-------------------------------------2h3h5-|
|-2--2--2-2-2--2--2-2-2--2--2-2-2h3h5-------|

|---------------------------------------------|
|---------------------------------------------|
|---------------------------------------------|
|---------------------------------------------|
|---------------------2h3h5-------2h3h5-------|
|-2--2--2-2-2--2--2-2-------2h3h5-------2h3h5-|

|-------------------------------------------|
|-------------------------------------------|
|-------------------------------------------|
|-------------------------------------------|
|-------------------------------------2h3h5-|
|-2--2--2-2-2--2--2-2-2--2--2-2-2h3h5-------|

|---------------------------------------------|
|---------------------------------------------|
|---------------------------------------------|
|---------------------7h8---2h3h5-------------|
|-------------------------8-------2h3h5-------|
|-2--2--2-2-2--2--2-2-------------------2h3h5-|
Play this all TWICE

Riff After Bass
|---------------------------------------------------------------------------|
|---------------------------------------------------------------------------|
|---------------------------------------------------------------------------|
|-2-2-2x2x-3-3-3x3x-5-5-5x5x-5-5-5x5x--2-2-2x2x-3-3-3x3x--2--2-9--9-10--10-7|
|-2-2-2x2x-3-3-3x3x-5-5-5x5x-5-5-5x5x--2-2-2x2x-3-3-3x3x--2--2-9--9-10--10-7|
|-2-2-2x2x-3-3-3x3x-5-5-5x5x-5-5-5x5x--2-2-2x2x-3-3-3x3x--2--2-9--9-10--10-7|
  . . .... . . .... . . .... . . ....  . . .... . . ....
Chorus 3
|-----------------------------------------------------|
|-----------------------------------------------------|
|-------------------------------------------------/4--|
|-xxxxxx-6-6-x6-6-x5-5-x5-5---------------------------|
|-xxxxxx-6-6-x6-6-x5-5-x5-5--2h3-2h3-2h3-2h3-2~~------|
|-xxxxxx-6-6-x6-6-x5-5-x5-5---------------------------|

|---------------------------------------------------------------------------|
|---------------------------------------------------------------------------|
|---------------------------------------------------------------------------|
|-2--2--2--2--9--9--9--9--10--10--10--10--7--7--7--7--6--6--6--6-5--5--5--5-|
|-2--2--2--2--9--9--9--9--10--10--10--10--7--7--7--7--6--6--6--6-5--5--5--5-|
|-2--2--2--2--9--9--9--9--10--10--10--10--7--7--7--7--6--6--6--6-5--5--5--5-|

|-------------------------------------------------------|
|-------------------------------------------------------|
|-------------------------------------------------------|
|-2h3-2h3-2h3-2h3-2h3-2h3-2h3-2h3-2h3-2h3-2h3-2h3-2~~~--|
|-------------------------------------------------------|
|-------------------------------------------------------|
  . . . . . . . . . . . . . . . . . .
Bridge/Outro
|-----------------------------------------------------------------|
|-----------------------------------------------------------------|
|-9--9--9-x9-9-9--7--7--7-x7-7-7----------------------------------|
|-9--9--9-x9-9-9--7--7--7-x7-7-7--5--5--5-x5-5-5--4--4--4-x4-4-4--|
|-7--7--7-x7-7-7--5--5--5-x5-5-5--5--5--5-x5-5-5--4--4--4-x4-4-4--|
|---------------------------------5--5--5-x5-5-5--4--4--4-x4-4-4--|

|------------------------------------------------------|
|------------------------------------------------------|
|------------------------------------------------------|
|------------------------------------------------------|
|-777777777777555555555555-----------------------------|
|--------------------------555555555555444444444444----|
  ........................ ........................
|-----------------------------------------------------------------|
|-----------------------------------------------------------------|
|-9--9--9-x9-9-9--7--7--7-x7-7-7----------------------------------|
|-9--9--9-x9-9-9--7--7--7-x7-7-7--5--5--5-x5-5-5--4--4--4-x4-4-4--|
|-7--7--7-x7-7-7--5--5--5-x5-5-5--5--5--5-x5-5-5--4--4--4-x4-4-4--|
|---------------------------------5--5--5-x5-5-5--4--4--4-x4-4-4--|

Outro
|---------------------------------------------5~~~~~~~~~---|
|---------------------------------------------5~~~~~~~~~---|
|-5--5--5--5---5----5-----5-------5-----------5~~~~~~~~~---|
|-5--5--5--5---5----5-----5-------5-----------5~~~~~~~~~---|
|-3--3--3--3---3----3-----3-------3-----------3~~~~~~~~~---|
|----------------------------------------------------------|

|------------------------------------3~~~~~~~~~~~~-------------------------|
|------------------------------------3~~~~~~~~~~~~-------------------------|
|------------------------------------4~~~~~~~~~~~~--3-44-3-4-3-44-3-4-4-3--|
|-5--5--5--5---5---5---5-----5-------5~~~~~~~~~~~~-------------------------|
|-5--5--5--5---5---5---5-----5-------5~~~~~~~~~~~~-------------------------|
|-5--5--5--5---5---5---5-----5---------------------------------------------|

There you go! Ejoy! Please rate and comment
Добавлено: 26.02.2012
Другие материалы по этой песне:
  • Аккорды и текст

Страница создана 26.02.2012
http://primanota.ru/sick-puppies/the-bottom-chords.htm
Привет, Гость.
Предлагаем пройти революционный курс по гитаре.
Подарок от PrimaNota.Ru, забирай!