PrimaNota.ru - самый крупный в мире бесплатный архив песенных текстов, аккордов, табулатур и нот


Sick Puppies - My World - текст песни, таба, бас-таба, видео

Регистрация Запомнить меня
Войти через:  Facebook Google Twitter Vk Yandex Mail.ru

Sick Puppies - My World - текст песни, таба, бас-таба, видео

Печатать
Просмотров: 747
Уроки эстрадного вокала в Санкт-Петербурге
My World - Sick Puppies... =)
Tabbed By Cara Exall

-The tuning is drop D (DADGBE)

My Chords & Tablature May Not Be EXACT & Accurate. but i think its alright for my first 
=]..-Sounds Fine To Me! ....(Try to work out the strumming for yourself).

Verse (Part 1)
E|------------------------------------------------------------------------|
B|------------------------------------------------------------------------|
G|-------------------------------------5----------------------------------|
D|----5----------8----------1----------5-----------------x2---------------|
A|----5----------8----------1----------3----------------------------------|
D|----5----------8----------1---------------------------------------------|
  ^second time through, the last chord changes it's strumming pattern

Chorus (Part 2)
E|------------------------------------------------------------------------|
B|------------------------------------------------------------------------|
G|----8----------5--------------------------------------------------------|
D|----8----------5----------5-----------7--8------------------------------|
A|----6----------3----------5-----------7--8------------------------------|
D|--------------------------5-----------7--8------------------------------|

E|------------------------------------------------------------------------|
B|------------------------------------------------------------------------|
G|----8----------5--------------------------------------------------------|
D|----8----------5----------5-----------7----8-8----8-7-------------------|
A|----6----------3----------5-----------7----8-8----8-7-------------------|
D|--------------------------5-----------7----8-8----8-7-------------------|

E|--------------------------|
B|--------------------------|
G|----8----------5----------|
D|----8----------5----------|
A|----6----------3----------|
D|--------------------------|.....

Verse 2 (Part 3)
E|------------------------------------------------------------------------|
B|------------------------------------------------------------------------|
G|-------------------------------------5----------------------------------|
D|----5----------8----------1----------5-----------------x3---------------|
A|----5----------8----------1----------3----------------------------------|
D|----5----------8----------1---------------------------------------------|

Chorus (Part 4)
E|------------------------------------------------------------------------|
B|------------------------------------------------------------------------|
G|----8----------5--------------------------------------------------------|
D|----8----------5----------5-----------7--8------------------------------|
A|----6----------3----------5-----------7--8------------------------------|
D|--------------------------5-----------7--8------------------------------|

E|------------------------------------------------------------------------|
B|------------------------------------------------------------------------|
G|----8----------5--------------------------------------------------------|
D|----8----------5----------5-----------7----8-8----8-7-------------------|
A|----6----------3----------5-----------7----8-8----8-7-------------------|
D|--------------------------5-----------7----8-8----8-7-------------------|

E|------------------------------|
B|------------------------------|
G|----8----------5--------------|
D|----8----------5--------------|
A|----6----------3--------------|
D|------------------------------|

Bridge (Part 5)
E|------------------------------------------------------------------------|
B|------------------------------------------------------------------------|
G|--8---8---8---8---7---7---7---7---10---10---10---10---10---10---10---7--|
D|----8---8---8---8---8---8---8---8----8----8----8----8----8----8----8---8|
A|------------------------------------------------------------------------|
D|------------------------------------------------------------------------|

E|-------------------------------------------------------------------------|
B|-------------------------------------------------------------------------|
G|--8---8---8---8---7---7---7---7---10---10---10---10---10---10---10---10--|
D|----8---8---8---8---8---8---8---8----8----8----8----8----8----8----8----8|
A|-------------------------------------------------------------------------|
D|-------------------------------------------------------------------------|

[When you get to the 10-  bit...... ^ it gets fast on the 2nd time round]
                       -8

E|-------------------------------------------------------------------------|
B|-------------------------------------------------------------------------|
G|-----10---10---10---10---10---10---10---10----------------------8--------|
D|--------8----8----8----8----8----8----8----8-----|then-strum>---8--------|
A|----------------------------------------------------------------6--------|
D|-------------------------------------------------------------------------|

Solo (Part 6) (It's not brilliant.. but it'll do*)
[Lead Guitar]
E|------5-5-5-5-5-5-5-5------------5-5-5-5-5-5-5-5-------------------------|
B|----8-----------------6-6-6-6--8-----------------------------------------|
G|-------------------------------------------------5-5-5-5--5-7-7-7-7------|
D|-------------------------------------------------------------------------|
A|-------------------------------------------------------------------------|
D|-------------------------------------------------------------------------|

E|----5-5-5-5--8-8-8-8---5-5-5-5---8-8-8-8--------------------------------|
B|---8--------8----------------------------6/-8---4/-6---1/-3--1----------|
G|--------------------------------------------------------------3-3-5--3-5|
D|------------------------------------------------------------------------|
A|------------------------------------------------------------------------|
D|------------------------------------------------------------------------|

E|---------------------------|
B|---------------------------|
G|--8-7-/...-----------------|
D|----------5----------------|
A|---------------------------|
D|---------------------------|

[Backup Guitarist]
E|------------------------------------------------------------------------|
B|------------------------------------------------------------------------|
G|----8----------5--------------------------------------------------------|
D|----8----------5----------5----------7---8---------------1-1-1-1-1-1----|
A|----6----------3----------5----------7---8--------mute>--1-1-1-1-1-1----|
D|--------------------------5----------7---8---------------1-1-1-1-1-1----|

E|------------------------------------------------------------------------|
B|------------------------------------------------------------------------|
G|----8----------5--------------------------------------------------------|
D|----8----------5----------5-----------7----8-8----8-7-------------------|
A|----6----------3----------5-----------7----8-8----8-7-------------------|
D|--------------------------5-----------7----8-8----8-7-------------------|

Chorus (Part 7)
[This is just the backup.. - the main chords]
E|------------------------------------------------------------------------|
B|------------------------------------------------------------------------|
G|----8----------5--------------------------------------------------------|
D|----8----------5----------5-----------7--8------------------------------|
A|----6----------3----------5-----------7--8------------------------------|
D|--------------------------5-----------7--8------------------------------|

E|------------------------------------------------------------------------|
B|------------------------------------------------------------------------|
G|----8----------5--------------------------------------------------------|
D|----8----------5----------5-----------7----8-8----8-7-------------------|
A|----6----------3----------5-----------7----8-8----8-7-------------------|
D|--------------------------5-----------7----8-8----8-7-------------------|

E|------------------------------------------------------------------------|
B|------------------------------------------------------------------------|
G|----8----------5--------------------------------------------------------|
D|----8----------5----------5--------8--------5--------8--------5--------8|
A|----6----------3----------5--------8--------5--------8--------5--------8|
D|--------------------------5--------8--------5--------8--------5--------8|

E|------------------------------------------------------------------------|
B|------------------------------------------------------------------------|
G|------------------------------------------------------------------------|
D|----5--------8-----5--5--5--5---8--8--8-7-------------------------------|
A|----5--------8-----5--5--5--5---8--8--8-7-------------------------------|
D|----5--------8-----5--5--5--5---8--8--8-7-------------------------------|

^... tada! . yay! i finished it =] wo0... my first tab.
Добавлено: 21.04.2012
Другие материалы по этой песне:

Страница создана 21.04.2012
http://primanota.ru/sick-puppies/my-world-chords.htm
Привет, Гость.
Предлагаем пройти революционный курс по гитаре.
Подарок от PrimaNota.Ru, забирай!