PrimaNota.ru - самый крупный в мире бесплатный архив песенных текстов, аккордов, табулатур и нот


Shadows - This Ol House - бас-таба, видео

Регистрация Запомнить меня
Войти через:  Facebook Google Twitter Vk Yandex Mail.ru

Shadows - This Ol House - бас-таба, видео

Печатать
Просмотров: 93
Уроки эстрадного вокала в Санкт-Петербурге
s/shadows/This_ol'_house.btab

Basstab by Jan Bjorklund, Finland  jani_bjorklund@yahoo.se>
You are welcome to request for basstabs!
Bienvenidos a pedirme transcripciones para el bajo!
Fingering and positions as suggested by TablEdit. 

TablEdited by Jan Bjorklund
Tuning : E A D G 	Time Signature: 2/4

 |        |       |        |       |        |       |        
|--------|----------------|----------------|----------------|
|--------|--------2-------|--------2-------|--------2-------|
|--------|0---4-------4---|0---4-------4---|0---4-------4---|
|----4---|----------------|----------------|----------------|

 |       |        |       |        |       |        |       |        
|----------------|----------------|2---------------|--------2-------|
|--------2-------|--------2---4---|----4---2-------|----4-------4---|
|0---4-------4---|0---4-----------|------------4---|5---------------|
|----------------|----------------|----------------|----------------|

 |       |        |       |        |       |        |       |        
|------------4---|--------4---6---|----------------|----------------|
|----4---7-------|----6-----------|2---0-----------|--------2---4---|
|5---------------|7---------------|--------4---2---|0---4-----------|
|----------------|----------------|----------------|----------------|

 |       |        |       |        |       |        |       |        
|2---------------|----------------|----------------|--------2---4---|
|----4---2-------|--------2---4---|--------2---4---|----4-----------|
|------------4---|0---4-----------|----4-----------|5---------------|
|----------------|----------------|5---------------|----------------|

 |       |        |       |        |       |        |       |        
|------------4---|--------4---6---|--------4---6---|----------------|
|----4---7-------|----6-----------|----6-----------|2---0-----------|
|5---------------|7---------------|7---------------|--------4---2---|
|----------------|----------------|----------------|----------------|

 |       |        |       |        |       |        |       |        
|----------------|--------2---4---|5---4---2-------|2---------------|
|--------2-------|----4-----------|------------4---|--------2---4---|
|----4-------4---|5---------------|----------------|----4-----------|
|5---------------|----------------|----------------|----------------|

 |       |        |       |        |       |        |       |        
|----------------|--------4---6---|----------------|----------------|
|7---------------|----6-----------|2---0-----------|--------2---4---|
|----4---5---6---|7---------------|--------4---2---|0---4-----------|
|----------------|----------------|----------------|----------------|

 |       |        |       |        |       |        |       |        
|2---------------|--------2---4---|5---4---2-------|----------------|
|----4---2-------|----4-----------|------------4---|--------2---4---|
|------------4---|5---------------|----------------|0---4-----------|
|----------------|----------------|----------------|----------------|

 |       |        |       |        |       |        |       |        
|2---------------|----1---4---1---|----1---4---1---|----------------|
|----4---2-------|2---------------|2---------------|2---0-----------|
|------------4---|----------------|----------------|--------4---2---|
|----------------|----------------|----------------|----------------|

 |       |        |       |        |       |        |       |        
|----------------|----------------|----1---4---1---|----1---4---1---|
|--------2-------|------------1---|2---------------|2---------------|
|0---4-------4---|----4---5-------|----------------|----------------|
|----------------|5---------------|----------------|----------------|

 |       |        |       |        |       |        |       |        
|----------------|----------------|2---------------|----------------|
|2-2-0-----------|--------2---4---|--------2-------|--------2---4---|
|--------4---2---|0---4-----------|----4-------4---|0---4-----------|
|----------------|----------------|----------------|----------------|

 |       |        |       |        |       |        |       |        
|2---------------|--------2-------|------------4---|--------4---6---|
|----4---2-------|----4-------4---|----4---7-------|----6-----------|
|------------4---|5---------------|5---------------|7---------------|
|----------------|----------------|----------------|----------------|

 |       |        |       |        |       |        |       |        
|----------------|----------------|2---------------|----------------|
|2-2-0-----------|--------2---4---|----4---2-------|--------2---4---|
|--------4---2---|0---4-----------|------------4---|0---4-----------|
|----------------|----------------|----------------|----------------|

 |       |        |       |        |       |        |       |        
|----------------|--------2---4---|------------4---|--------4---6---|
|--------2---4---|----4-----------|----4---7-------|----6-----------|
|----4-----------|5---------------|5---------------|7---------------|
|5---------------|----------------|----------------|----------------|

 |       |        |       |        |       |        |       |        
|--------4---6---|----------------|----------------|--------2---4---|
|----6-----------|2-2-0-----------|--------2-------|----4-----------|
|7---------------|--------4---2---|----4-------4---|5---------------|
|----------------|----------------|5---------------|----------------|

 |       |        |       |        |       |        |       |        
|5---4---2-------|2---------------|----------------|--------4---6---|
|------------4---|--------2---4---|7---------------|----6-----------|
|----------------|----4-----------|----4---5---6---|7---------------|
|----------------|----------------|----------------|----------------|

 |       |        |       |        |       |        |       |        
|----------------|----------------|2---------------|--------2---4---|
|2---0-----------|--------2---4---|----4---2-------|----4-----------|
|--------4---2---|0---4-----------|------------4---|5---------------|
|----------------|----------------|----------------|----------------|

 |       |        |       |        |       |        |       |        
|5---4---2-------|----------------|2---------------|----1---4---1---|
|------------4---|--------2---4---|----4---2-------|2---------------|
|----------------|0---4-----------|------------4---|----------------|
|----------------|----------------|----------------|----------------|

 |       |        |       |        |       |        |       |        
|----1---4---1---|----------------|----------------|----------------|
|2---------------|2-2-0-----------|--------2-------|--------2-------|
|----------------|--------4---2---|0---4-------4---|----4-------4---|
|----------------|----------------|----------------|5---------------|

 |       |        |       |        |       |        |       |        
|--------2---4---|5---4---2-------|2---------------|----------------|
|----4-----------|------------4---|--------2---4---|7---------------|
|5---------------|----------------|----4-----------|----4---5---6---|
|----------------|----------------|----------------|----------------|

 |       |        |       |        |       |        |       |        
|--------4---6---|----------------|----------------|2---------------|
|----6-----------|2---0-----------|--------2---4---|----4---2-------|
|7---------------|--------4---2---|0---4-----------|------------4---|
|----------------|----------------|----------------|----------------|

 |       |        |       |        |       |        |       |        
|--------2---4---|5---4---2-------|----------------|2---------------|
|----4-----------|------------4---|--------2---4---|----4---2-------|
|5---------------|----------------|0---4-----------|------------4---|
|----------------|----------------|----------------|----------------|

 |       |        |       |        |       |        |       |        
|----1---4---1---|----1---4---1---|----------------|----------------|
|2---------------|2---------------|2-2-0-----------|--------2---4---|
|----------------|----------------|--------4---2---|0---4-----------|
|----------------|----------------|----------------|----------------|

 |       |        |       |        |       |        |       |        
|2---------------|----------------|2---------------|--------2-------|
|----4---2-------|--------2---4---|----4---2-------|----4-------4---|
|------------4---|0---4-----------|------------4---|5---------------|
|----------------|----------------|----------------|----------------|

 |       |        |       |        |       |        |       |        
|------------4---|--------4---6---|----------------|----------------|
|----4---7-------|----6-----------|2-2-0-----------|--------2---4---|
|5---------------|7---------------|--------4---2---|0---4-----------|
|----------------|----------------|----------------|----------------|

 |       |        |       |        |       |        |       |        
|2---------------|----------------|----------------|--------2---4---|
|----4---2-------|--------2---4---|--------2---4---|----4-----------|
|------------4---|0---4-----------|----4-----------|5---------------|
|----------------|----------------|5---------------|----------------|

 |       |        |       |        |       |        |       |        
|------------4---|--------4---6---|--------4---6---|----------------|
|----4---7-------|----6-----------|----6-----------|2---0-----------|
|5---------------|7---------------|7---------------|--------4---2---|
|----------------|----------------|----------------|----------------|

 |       |        |       |        |       |        |       |        
|----------------|--------2---4---|5---4---2-------|2---------------|
|--------2-------|----4-----------|------------4---|--------2---4---|
|----4-------4---|5---------------|----------------|----4-----------|
|5---------------|----------------|----------------|----------------|

 |       |        |       |        |       |        |       |        
|----------------|--------4---6---|----------------|----------------|
|7---------------|----6-----------|2---0-----------|--------2---4---|
|----4---5---6---|7---------------|--------4---2---|0---4-----------|
|----------------|----------------|----------------|----------------|

 |       |        |       |        |       |        |       |        
|2---------------|--------2---4---|5---4---2-------|----------------|
|----4---2-------|----4-----------|------------4---|--------2---4---|
|------------4---|5---------------|----------------|0---4-----------|
|----------------|----------------|----------------|----------------|

 |       |        |       |        |       |        |       |        
|2---------------|----1---4---1---|----1---4---1---|----------------|
|----4---2-------|2---------------|2---------------|2-2-0-----------|
|------------4---|----------------|----------------|--------4---2---|
|----------------|----------------|----------------|----------------|

 |       |        |       |        |       |        |       |        
|----------------|--------2---4---|5---4---2-------|2---------------|
|--------2-------|----4-----------|------------4---|--------2---4---|
|----4-------4---|5---------------|----------------|----4-----------|
|5---------------|----------------|----------------|----------------|

 |       |        |       |        |       |        |       |        
|----------------|--------4---6---|----------------|----------------|
|7---------------|----6-----------|2---0-----------|--------2---4---|
|----4---5---6---|7---------------|--------4---2---|0---4-----------|
|----------------|----------------|----------------|----------------|

 |       |        |       |        |       |        |       |        
|2---------------|--------2---4---|5---4---2-------|----------------|
|----4---2-------|----4-----------|------------4---|--------2---4---|
|------------4---|5---------------|----------------|0---4-----------|
|----------------|----------------|----------------|----------------|

 |       |        |       |        |       |        |       |        
|2---------------|----1---4---1---|----1---4---1---|----------------|
|----4---2-------|2---------------|2---------------|2-2-0-----------|
|------------4---|----------------|----------------|--------4---2---|
|----------------|----------------|----------------|----------------|

 |       |        |       |        |       |        |       |        
|----------------|--------2---4---|5---4---2-------|----------------|
|--------2-------|----4-----------|------------4---|--------2---4---|
|----4-------4---|5---------------|----------------|0---4-----------|
|5---------------|----------------|----------------|----------------|

 |       |        |       |        |       |        |       |        
|----------------|--------4---6---|----------------|----------------|
|7---------------|----6-----------|2---0-----------|--------2---4---|
|----4---5---6---|7---------------|--------4---2---|0---4-----------|
|----------------|----------------|----------------|----------------|

 |       |         
|2---------------|
|----4---2-------|
|------------4---|
|----------------|


Created with TablEdit http://www.tabledit.com/

............................................................
     
Добавлено: 24.11.2013
Другие материалы по этой песне:
  • Аккорды и текст

Страница создана 24.11.2013
http://primanota.ru/shadows/this-ol-house-chords.htm
Привет, Гость.
Предлагаем пройти революционный курс по гитаре.
Подарок от PrimaNota.Ru, забирай!