PrimaNota.ru - самый крупный в мире бесплатный архив песенных текстов, аккордов, табулатур и нот


Shadows - Ghost Riders - таба, видео

Регистрация Запомнить меня
Войти через:  Facebook Google Twitter Vk Yandex Mail.ru

Shadows - Ghost Riders - таба, видео

Печатать
Просмотров: 79
shadows_ghost riders

Basstab by Jan Bjorklund, Finland  jani_bjorklund@yahoo.se>
You are welcome to request for basstabs!
Fingering and positions as suggested by TablEdit, please use common sense!

TablEdited by Jan Bjorklund
Tuning : E A D G 	Time Signature: 4/4

  |       |       |       |          |       |       |       |         
|-----2-------0-2-----2-------0-2--|-----2-------0-2-----2------------|
|----------------------------------|-----------------------------2----|
|-0---------------0----------------|-0---------------0----------------|
|----------------------------------|-------------------------0--------|

  |       |       |       |          |       |       |       |         
|-------------0-------2------------|-----0-------2-------4-------0----|
|-----3-----------------------3----|----------------------------------|
|-----------------0----------------|---------0-------2----------------|
|-1-------3---------------1--------|-3-----------------------3--------|

  |       |       |       |          |       |       |       |         
|-----2-------0-2-----2-------0-2--|-----2-------0-2-----2------------|
|----------------------------------|-----------------------------2----|
|-0---------------0----------------|-0---------------0----------------|
|----------------------------------|-------------------------0--------|

  |       |       |       |          |       |       |       |         
|-------------0-------2------------|-----0-------2-------4-------0----|
|-----3-----------------------3----|----------------------------------|
|-----------------0----------------|---------0-------2----------------|
|-1-------3---------------1--------|-3-----------------------3--------|

  |       |       |       |          |       |       |       |         
|-----2-------0-2-----2-------0-2--|-----2-------0-2-----2-------0-2--|
|----------------------------------|----------------------------------|
|-0---------------0----------------|-0---------------0----------------|
|----------------------------------|----------------------------------|

  |       |       |       |          |       |       |       |         
|-----2-------2-------2-------2----||----5-------5-------5-------5----|
|----------------------------------|*---------------------------------|
|-0-------0-------0-------0--------|*3-------3-------3-------3--------|
|----------------------------------||---------------------------------|

  |       |       |       |          |       |       |       |         
|-----5-------5-------5-------5----|-----2-------2-------2-------2----|
|----------------------------------|----------------------------------|
|-3-------3-------3-------3--------|-0-------0-------0-------0--------|
|----------------------------------|----------------------------------|

  |       |       |       |          |       |       |       |         
|-----5-------5-------5-------5----|-----5-------5-------0-------1---||
|----------------------------------|---------------------------------||
|-3-------3-------3-------3--------|-3-------3-----------------------||
|----------------------------------|-----------------3-------4-------||

>1|       |       |       |          |       |       |       |         
|-----2-------2-------2-------2----|-----2-------2-------2------------|
|----------------------------------|----------------------------------|
|-0-------0-------0-------0--------|-0-------0-------0-------0--------|
|----------------------------------|-----------------------------0----|

  |       |       |       |          |       |       |       |         
|----------------------------------|-----------------------------0----|
|-----3-------3-------3-------3----|-----3-------3-------3------------|
|----------------------------------|----------------------------------|
|-1-------1-------1-------1--------|-1-------1-------1-------3--------|

  |       |       |       |          |       |       |       |         
|-----2-------2-------2-------2----|-----2-------2-------2-------2----|
|----------------------------------|----------------------------------|
|-0-------0-------0-------0--------|-0-------0-------0-------0--------|
|----------------------------------|----------------------------------|

  |       |       |       |        >2|       |       |       |         
|-----2-------2-------2-------2---||-----2-------2-------2-------2----|
|---------------------------------*|----------------------------------|
|-0-------0-------0-------0-------*|-0-------0-------0-------0--------|
|---------------------------------||----------------------------------|

  |       |       |       |          |       |       |       |         
|-----2-------2-------2-------2----|-----2-------2-------2-------2----|
|----------------------------------|----------------------------------|
|-0-------0-------0-------0--------|-0-------0-------0-------0--------|
|----------------------------------|----------------------------------|

  |       |       |       |          |       |       |       |         
|-----2-------2-------2-------2----|-----5-------5-------4-------4----|
|----------------------------------|----------------------------------|
|-0-------0-------0-------0--------|-3-------3-------2-------2--------|
|----------------------------------|----------------------------------|

  |       |       |       |          |       |       |       |         
|-----2-------2-------0-------0----|-----2-------0-2-----2-------0-2--|
|----------------------------------|----------------------------------|
|-0-------0------------------------|-0---------------0----------------|
|-----------------3-------3--------|----------------------------------|

  |       |       |       |          |       |       |       |         
|-----2-------0-2-----2------------|---------------------5-------6----|
|-----------------------------2----|-----3-------3--------------------|
|-0---------------0----------------|-----------------3-----3-4-----4--|
|-------------------------0--------|-1-------1------------------------|

  |       |       |       |          |       |       |       |         
|-----7-------9-------10------7----|-----2-------2-------2-------2----|
|-0-----0-2-----2-3-------0--------|----------------------------------|
|----------------------------------|-0-------0-------0-------0--------|
|----------------------------------|----------------------------------|

  |       |       |       |          |       |       |       |         
|-----3-------3-------3-------3----|-----4-------4-------4-------4----|
|----------------------------------|----------------------------------|
|-1-------1-------1-------1--------|-2-------2-------2-------2--------|
|----------------------------------|----------------------------------|

  |       |       |       |          |       |       |       |         
|-----5-------5-------5-------5----|-----5-------5-------5-------5----|
|----------------------------------|----------------------------------|
|-3-------3-------3-------3--------|-3-------3-------3----------------|
|----------------------------------|----------------------------------|

  |       |       |       |          |       |       |       |         
|-----5-5-----5-------5-5-----5----|-----8-8-----8-------8-8-----8----|
|----------------------------------|-1-------1-------1-------1--------|
|-3-------3-------3-------3--------|----------------------------------|
|----------------------------------|----------------------------------|

  |       |       |       |          |       |       |       |         
|-----8-8-----8-------8-8-----8----|-----5-5-----5-------5-5-----5----|
|-1-------1-------1-------1--------|----------------------------------|
|----------------------------------|-3-------3-------3-------3--------|
|----------------------------------|----------------------------------|

  |       |       |       |          |       |       |       |         
|-----8-8-----8-------8-8-----8----|-----8-8-----8-------8-8-----8----|
|-1-------1-------1-------1--------|-1-------1-------1-------1--------|
|----------------------------------|----------------------------------|
|----------------------------------|----------------------------------|

  |       |       |       |          |       |       |       |         
|-----5-5-----5-------5-5-----5----|-----5-------4-------3-3-----2----|
|----------------------------------|----------------------------------|
|-3-------3-------3-------3--------|-3-------2-------1-------0--------|
|----------------------------------|----------------------------------|

  |       |       |       |          |       |       |       |         
|-----1-------1-------1-------0----|-----------------------------0----|
|----------------------------------|-----3-------3-------3------------|
|----------------------------------|----------------------------------|
|-4-------4-------4-------3--------|-1-------1-------1-----1-3-----3--|

  |       |       |       |          |       |       |       |         
|-----5-------5-------5-------5----|-----5-------5-------5-------5----|
|----------------------------------|----------------------------------|
|-3-------3-------3-------3--------|-3-------3-------3-------3--------|
|----------------------------------|----------------------------------|

  |       |       |       |          |       |       |       |         
|-----5-------5-------5-------5----|-----5-------5-------5-------5----|
|----------------------------------|----------------------------------|
|-3-------3-------3-------3--------|-3-------3-------3-------3--------|
|----------------------------------|----------------------------------|

  |       |       |       |          |       |       |       |         
|-----4-------4-------4-------4----|-----4-------4-------4-------4----|
|----------------------------------|----------------------------------|
|-2-------2-------2-------2--------|-2-------2-------2-------2--------|
|----------------------------------|----------------------------------|

  |       |       |       |          |       |       |       |         
|-----3-------3-------3-------3----|-----3-------3-------3-------3----|
|----------------------------------|----------------------------------|
|-1-------1-------1-------1--------|-1-------1-------1-------1--------|
|----------------------------------|----------------------------------|

  |       |       |       |          |       |       |       |         
|-----2-------2-------2-------2----|-----2-------2-------2-------2----|
|----------------------------------|----------------------------------|
|-0-------0-------0-------0--------|-0-------0-------0-------0--------|
|----------------------------------|----------------------------------|

  |       |       |       |          |       |       |       |         
|-----5-------5-------4-------4----|-----2-------2-------0-------0----|
|----------------------------------|----------------------------------|
|-3-------3-------2-------2--------|-0-------0------------------------|
|----------------------------------|-----------------3-------3--------|

  |       |       |       |          |       |       |       |         
|-----2-------2-------2-------2----|-----2-------2-------2------------|
|----------------------------------|-----------------------------2----|
|-0-------0-------0-------0--------|-0-------0-------0----------------|
|----------------------------------|-------------------------0--------|

  |       |       |       |          |       |       |       |         
|---------------------5-------6----|-----7-------9-------10------7----|
|-----3-------3--------------------|-0-----0-2-----2-3-----3-0--------|
|-----------------3-----3-4-----4--|----------------------------------|
|-1-------1------------------------|----------------------------------|

  |       |       |       |          |       |       |       |         
|-----2-------2-------2-------2----|-----2-------2-------2-------2----|
|----------------------------------|----------------------------------|
|-0-------0-------0-------0--------|-0-------0-------0-------0--------|
|----------------------------------|----------------------------------|

  |       |       |       |          |       |       |       |         
|-----5-------5-------4-------4----|-----2-------2-------0-------0----|
|----------------------------------|----------------------------------|
|-3-------3-------2-------2--------|-0-------0------------------------|
|----------------------------------|-----------------3-------3--------|

  |       |       |       |          |       |       |       |         
|-----2-------0-2-----2-------0-2--|-----2-------0-2-----2------------|
|----------------------------------|-----------------------------2----|
|-0---------------0----------------|-0---------------0----------------|
|----------------------------------|-------------------------0--------|

  |       |       |       |          |       |       |       |         
|---------------------5-------6----|-----7-------9-------10------7----|
|-----3-------3--------------------|-0-----0-2-----2-3-------0--------|
|-----------------3-----3-4-----4--|----------------------------------|
|-1-------1------------------------|----------------------------------|

  |       |       |       |          |       |       |       |         
|-----2-------0-2-----2-------0-2--|-----2-------0-2-----2------------|
|----------------------------------|-----------------------------2----|
|-0---------------0----------------|-0---------------0----------------|
|----------------------------------|-------------------------0--------|

  |       |       |       |          |       |       |       |         
|---------------------5-------6----|----------------------------------|
|-----3-------3--------------------|-0--------------------------------|
|-----------------3-----3-4-----4--|----------------------------------|
|-1-------1------------------------|----------------------------------|

  |       |       |       |          |       |       |       |         
|----------------------------------|-----2-------0-2-----2-------0-2--|
|----------------------------------|----------------------------------|
|----------------------------------|-0---------------0----------------|
|----------------------------------|----------------------------------|

  |       |       |       |          |       |       |       |         
|-----2-------0-2-----2------------|-------------0-------2------------|
|-----------------------------2----|-----3-----------------------3----|
|-0---------------0----------------|-----------------0----------------|
|-------------------------0--------|-1-------3---------------1--------|

  |       |       |       |          |       |       |       |         
|-----0-------2-------4-------0----|-----2-------0-2-----2-------0-2--|
|----------------------------------|----------------------------------|
|---------0-------2----------------|-0---------------0----------------|
|-3-----------------------3--------|----------------------------------|

  |       |       |       |          |       |       |       |         
|-----2-------0-2-----2------------|-------------0-------2------------|
|-----------------------------2----|-----3-----------------------3----|
|-0---------------0----------------|-----------------0----------------|
|-------------------------0--------|-1-------3---------------1--------|

  |       |       |       |          
|-----0-------2-------4-------0----|
|----------------------------------|
|---------0-------2----------------|
|-3-----------------------3--------|


Created with TablEdit http://www.tabledit.com/
     
Добавлено: 08.06.2013
Другие материалы по этой песне:
  • Аккорды и текст

Страница создана 08.06.2013
http://primanota.ru/shadows/ghost-riders-chords.htm
Привет, Гость.
Предлагаем пройти революционный курс по гитаре.
Подарок от PrimaNota.Ru, забирай!