PrimaNota.ru - самый крупный в мире бесплатный архив песенных текстов, аккордов, табулатур и нот


Shadows - Theme From The Giant - бас-таба, видео

Регистрация Запомнить меня
Войти через:  Facebook Google Twitter Vk Yandex Mail.ru

Shadows - Theme From The Giant - бас-таба, видео

Печатать
Просмотров: 88
Уроки эстрадного вокала в Санкт-Петербурге
s/shadows/Theme_from_The_Giant.btab

Basstab by Jan Bjorklund, Finland  jani_bjorklund@yahoo.se>
You are welcome to request for basstabs!
Bienvenidos a pedirme transcripciones para el bajo!
Fingering and positions as suggested by TablEdit. 

TablEdited by Jan Bjorklund
Tuning : E A D G 	Time Signature: 4/4

 |       |       |       |        |       |       |       |        
|--------------------------------|--------------------------------|
|--------------------------------|--------------------------------|
|0-------0-----------------------|2-------2-----------------------|
|------------4---2-------2-------|----------------0-------0---4---|

 |       |       |       |        |       |       |       |        
|--------------------------------|--------------------------------|
|--------------------------------|--------------------------------|
|0-------0-----------------------|2-------2-----------------------|
|------------4---2-------2-------|----------------0-------0---4---|

 |       |       |       |        |       |       |       |        
|--------------------------------|--------------------------------|
|--------------------------------|--------------------------------|
|0-------0-----------------------|2-------2-----------------------|
|------------4---2-------2-------|----------------0-------0---4---|

 |       |       |       |        |       |       |       |        
|--------------------------------|--------------------------------|
|--------------------------------|--------------------------------|
|0-------0-----------------------|2-------2-----------------------|
|------------4---2-------2-------|----------------0-------0-------|

 |       |       |       |        |       |       |       |        
|--------------------------------|--------------------------------|
|--------------------------------|--------------------------------|
|0-------0-----------------------|2-------2-----------------------|
|----------------2-------2-------|----------------0-------0-------|

 |       |       |       |        |       |       |       |        
|--------------------------------|--------------------------------|
|--------------------------------|--------------------------------|
|0-------0-----------------------|2-------2-----------------------|
|------------4---2-------2-------|------------2---0-------0-------|

 |       |       |       |        |       |       |       |        
|--------------------------------|--------------------------------|
|--------------------------------|--------------------------------|
|0-------4---------------0-------|4-----------------------4-------|
|----------------0---------------|--------0-------4---------------|

 |       |       |       |        |       |       |       |        
|--------------------------------|--------------------------------|
|0-------------------------------|--------------------------------|
|----------------0-------2-------|--------2-----------------------|
|--------2-----------------------|0---------------4-------0-------|

 |       |       |       |        |       |       |       |        
|--------------------------------|--------------------------------|
|--------------------------------|--------------------------------|
|0-------0---0-------------------|2-------2-----------------------|
|----------------2-------2-------|------------2---0-------0-------|

 |       |       |       |        |       |       |       |        
|--------------------------------|--------------------------------|
|--------------------------------|--------------------------------|
|0-------0-----------------------|2-------2-----------------------|
|------------4---2-------2-------|------------2---0-------0-------|

 |       |       |       |        |       |       |       |        
|--------------------------------|--------------------------------|
|--------------------------------|--------------------------------|
|0-------4---------------0-------|4-----------------------4-------|
|----------------0---------------|--------0-------4---------------|

 |       |       |       |        |       |       |       |        
|--------------------------------|--------------------------------|
|0-------------------------------|--------0-----------------------|
|----------------0---------------|4-----------------------4-------|
|--------2---------------2-------|----------------1---------------|

 |       |       |       |        |       |       |       |        
|--------------------------------|--------------------------------|
|0-------------------------------|--------------------------------|
|----------------0---------------|4-------4-----------------------|
|--------2---------------2-------|----------------0-------0-------|

 |       |       |       |        |       |       |       |        
|--------------------------------|--------------------------------|
|0-------------------------------|--------------------------------|
|------------------------2-------|0---0-------0-------------------|
|--------2-------0---------------|----------------3-------3-------|

 |       |       |       |        |       |       |       |        
|--------------------------------|--------------------------------|
|--------------------------------|--------------------------------|
|0-------0-----------------------|0-------0---------------0-------|
|----------------3---3---3-------|----------------0---------------|

 |       |       |       |        |       |       |       |        
|--------------------------------|--------------------------------|
|--------------------------------|--------------------------------|
|0---------------0---------------|0---------------0---------------|
|--------0---------------0-------|--------0---------------0-------|

 |       |       |       |        |       |       |       |        
|--------------------------------|--------------------------------|
|0-------------------------------|--------0-----------------------|
|----------------0---------------|0-----------------------2-------|
|--------2---------------0-------|----------------0---------------|

 |       |        |       |       |       |        
|----------------|--------------------------------|
|----------------|--------------------------------|
|--------2-------|0---------------0---------------|
|0---------------|--------0---------------0-------|

 |       |       |       |        |       |       |       |        
|--------------------------------|--------------------------------|
|0-------------------------------|0---------------0---------------|
|----------------0---------------|--------0---------------0-------|
|--------2---------------2-------|--------------------------------|

 |       |       |       |        |       |       |       |        
|--------------------------------|--------------------------------|
|0---------------0---------------|----------------0-------0-------|
|--------0---------------0-------|--------------------------------|
|--------------------------------|3-------3-----------------------|

 |       |       |       |        |       |        
|--------------------------------|----------------|
|--------------------------------|----------------|
|------------------------0-------|0---------------|
|3-------3-------0---------------|--------0-------|

 |       |       |       |        |       |       |       |        
|--------------------------------|--------------------------------|
|0-------------------------------|--------------------------------|
|----------------0---------------|--------2-----------------------|
|--------2---------------2-------|0---------------4-------0-------|

 |       |       |       |        |       |       |       |        
|--------------------------------|--------------------------------|
|--------------------------------|--------------------------------|
|0---------------0---------------|2-------2-----------------------|
|--------0---------------2-------|----------------0-------0-------|

 |       |       |       |        |       |       |       |        
|--------------------------------|--------------------------------|
|--------------------------------|--------------------------------|
|0-------0---0-------------------|2-------2-----------------------|
|----------------2-------2-------|----------------0-------0-------|

 |       |       |       |        |       |       |       |        
|--------------------------------|--------------------------------|
|--------------------------------|--------------------------------|
|0-------0-----------------------|2-------2-----------------------|
|----------------2-------2-------|----------------0-------0-------|

 |       |       |       |        |       |       |       |        
|--------------------------------|--------------------------------|
|--------------------------------|--------------------------------|
|0-----0-------------------------|2-------2-----------------------|
|----------4-----2-------2-------|------------2---0-------0-------|

 |       |       |       |        |       |       |       |        
|--------------------------------|--------------------------------|
|--------------------------------|--------------------------------|
|0-------0-----------------------|2-------2-----------------------|
|----------------2-------2-------|----------------0-------0-------|

 |       |       |       |        |       |       |       |        
|--------------------------------|--------------------------------|
|--------------------------------|--------------------------------|
|0-------0-----------------------|2-------2-----------------------|
|------------4---2-------2-------|------------2---0-------0-------|

 |       |       |       |        |       |       |       |        
|--------------------------------|--------------------------------|
|--------------------------------|--------------------------------|
|0-------4---------------0-------|4-----------------------4-------|
|----------------0---------------|--------0-------4---------------|

 |       |       |       |        |       |       |       |        
|--------------------------------|--------------------------------|
|0-------------------------------|--------------------------------|
|----------------0-------2-------|--------2---------------------0-|
|--------2-----------------------|0---------------4-------0-------|

 |       |       |       |        |       |       |       |        
|--------------------------------|--------------------------------|
|--------------------------------|--------------------------------|
|--------0-----------------------|2-------2-----------------------|
|----------------2-------2-------|------------2---0-------0-------|

 |       |       |       |        |       |       |       |        
|--------------------------------|--------------------------------|
|--------------------------------|--------------------------------|
|0-------0---0-------------------|2-------2-----------------------|
|----------------2-------2-------|----------------0-------0-------|

 |       |       |       |        |       |       |       |        
|--------------------------------|--------------------------------|
|--------------------------------|--------------------------------|
|0-------0-------4---------------|4---------------4---------------|
|------------------------0-------|--------0---------------0-------|

 |       |       |       |        |       |       |       |        
|--------------------------------|--------------------------------|
|0-------------------------------|--------------------------------|
|----------------0---------------|4-----------------------4-------|
|--------2---------------2-------|--------0-------0---------------|

 |       |       |       |        |       |       |       |        
|--------------------------------|--------------------------------|
|0-------------------------------|--------------------------------|
|----------------0---------------|--------4---------------4-------|
|--------2---------------2-------|0---------------0---------------|

 |       |       |       |        |       |       |       |        
|--------------------------------|--------------------------------|
|0-------------------------------|--------------------------------|
|----------------0---------------|--------2-----------------------|
|--------2---------------2-------|0---------------4-------0-------|

 |       |       |       |        |       |       |       |        
|--------------------------------|--------------------------------|
|--------------------------------|--------------------------------|
|0-------0-----------------------|2-------2-----------------------|
|----------------2-------2-------|----------------0-------0-------|

 |       |       |       |        |       |       |       |        
|--------------------------------|--------------------------------|
|--------------------------------|--------------------------------|
|0-------0-----------------------|2-------2-----------------------|
|------------4---2-------2-------|------------2---0-------0-------|

 |       |       |       |        |       |       |       |        
|--------------------------------|--------------------------------|
|--------------------------------|--------------------------------|
|0-------0-----------------------|2-------2-----------------------|
|------------4---2-------2-------|------------2---0-------0-------|

 |       |       |       |        |       |       |       |        
|--------------------------------|--------------------------------|
|--------------------------------|--------------------------------|
|0-------0-----------------------|2-------2-----------------------|
|----------------2-------2-------|----------------0-------0-------|

 |       |       |       |        |       |       |       |        
|--------------------------------|--------------------------------|
|--------------------------------|--------------------------------|
|0-------0-----------------------|2-------2-----------------------|
|------------4---2-------2-------|------------2---0-------0-------|

 |       |       |       |        |       |       |       |        
|--------------------------------|--------------------------------|
|--------------------------------|--------------------------------|
|0-------0-----------------------|2-------2-----------------------|
|------------4---2-------2-------|------------2---0-------0-------|

 |       |       |       |        |       |       |       |        
|--------------------------------|--------------------------------|
|--------------------------------|--------------------------------|
|0-------0-----------------------|2-------2-----------------------|
|----------------2-------2-------|----------------0-------0-------|

 |       |       |       |        |       |       |       |        
|--------------------------------|--------------------------------|
|--------------------------------|--------------------------------|
|0-------0-----------------------|2-------2-----------------------|
|------------4---2-------2-------|------------2---0-------0-------|




Created with TablEdit http://www.tabledit.com/

............................................................
     
Добавлено: 24.11.2013
Другие материалы по этой песне:
  • Аккорды и текст

Страница создана 24.11.2013
http://primanota.ru/shadows/theme-from-the-giant-chords.htm
Привет, Гость.
Предлагаем пройти революционный курс по гитаре.
Подарок от PrimaNota.Ru, забирай!