PrimaNota.ru - самый крупный в мире бесплатный архив песенных текстов, аккордов, табулатур и нот


Shadows - The Wild Rose - бас-таба, видео

Регистрация Запомнить меня
Войти через:  Facebook Google Twitter Vk Yandex Mail.ru

Shadows - The Wild Rose - бас-таба, видео

Печатать
Просмотров: 104
Уроки эстрадного вокала в Санкт-Петербурге
s/shadows/The_wild_rose.btab

Basstab by Jan Bjorklund, Finland  jani_bjorklund@yahoo.se>
You are welcome to request for basstabs!
Bienvenidos a pedirme transcripciones para el bajo!
Fingering and positions as suggested by TablEdit. 

TablEdited by Jan Bjorklund
Tuning : E A D G 	Time Signature: 4/4

 |       |       |       |        |       |       |       |        
|----------------0---------------|----------------0---------------|
|--------------------------------|--------------------------------|
|3-----------3---------------3---|3-----------3---------------3---|
|--------------------------------|--------------------------------|

 |       |       |       |        |       |       |       |        
|--------------------------------|--------------------------------|
|----------------2---------------|0-----------0-------------------|
|0-----------0---------------0---|----------------0-----------0---|
|--------------------------------|--------------------------------|

 |       |       |       |        |       |       |       |        
|--------------------------------|--------------------------------|
|----------------0-----------0---|----------------3-----------3---|
|4-----------4-------------------|3-----------3-------------------|
|--------------------------------|--------------------------------|

 |       |       |       |        |       |       |       |        
|0-------------------------------|--------------------------------|
|------------3---0---------------|--------------------------------|
|----------------------------2---|3-------------------------------|
|--------------------------------|--------------------------------|

 |       |       |       |        |       |       |       |        
|----------------0---------------|----------------0---------------|
|--------------------------------|--------------------------------|
|3-----------3---------------3---|3-----------3---------------3---|
|--------------------------------|--------------------------------|

 |       |       |       |        |       |       |       |        
|----------------0---------------|----------------0---------------|
|--------------------------------|----------------------------2---|
|3-----------3---------------3---|3-----------3-------------------|
|--------------------------------|--------------------------------|

 |       |       |       |        |       |       |       |        
|--------------------------------|--------------------------------|
|3-------------------------------|3-------------------------------|
|------------3---3-----------3---|------------3---3-----------3---|
|--------------------------------|--------------------------------|

 |       |       |       |        |       |       |       |        
|0-------------------------------|0-------------------------------|
|------------3---0---0-------0---|--------------------------------|
|--------------------------------|--------------------------------|
|--------------------------------|--------------------------------|

 |       |       |       |        |       |       |       |        
|----------------0---------------|----------------0---------------|
|--------------------------------|--------------------------------|
|3-----------3---------------3---|3-----------3---------------3---|
|--------------------------------|--------------------------------|

 |       |       |       |        |       |       |       |        
|----------------0---------------|----------------0---------------|
|--------------------------------|--------------------------------|
|3-----------3---------------3---|3-----------3---------------3---|
|--------------------------------|--------------------------------|

 |       |       |       |        |       |       |       |        
|--------------------------------|0-----------------------0-------|
|3-----------3-----------3-------|------------0---0---------------|
|----------------3---------------|--------------------------------|
|--------------------------------|--------------------------------|

 |       |       |       |        |       |       |       |        
|--------------------------------|--------------------------------|
|--------------------------------|--------------------------------|
|3-----------3-------0-------2---|3-----------3---3-------3-------|
|----------------1---------------|--------------------------------|

 |       |       |       |        |       |       |       |        
|--------------------------------|--------------------------------|
|----------------2-----------2---|2-----------2---2-------2-------|
|2-----------2-------------------|--------------------2-----------|
|--------------------------------|--------------------------------|

 |       |       |       |        |       |       |       |        
|--------------------------------|--------------------------------|
|----------------2---------------|--------------------------------|
|0-----------0-------------------|0---------------0-------0-------|
|------------------------0-------|------------0-------------------|

 |       |       |       |        |       |       |       |        
|--------------------------------|--------------------------------|
|2-----------2-------------------|2-----------2-----------2-------|
|----------------2-----------2---|----------------2---------------|
|--------------------------------|--------------------------------|

 |       |       |       |        |       |       |       |        
|--------------------------------|--------------------------------|
|----------------0---------------|--------------------------------|
|0-------------------------------|--------------------------------|
|--------------------------------|3-------------------------------|

 |       |       |       |        |       |       |       |        
|----------------0---------------|----------------0---------------|
|--------------------------------|--------------------------------|
|3-----------3---------------3---|3-----------3---------------3---|
|--------------------------------|--------------------------------|

 |       |       |       |        |       |       |       |        
|----------------0---------------|----------------0---------------|
|--------------------------------|--------------------------------|
|3-----------3---------------3---|3-----------3---------------3---|
|--------------------------------|--------------------------------|

 |       |       |       |        |       |       |       |        
|--------------------------------|0-----------------------0-------|
|3-----------3-----------3-------|------------0---0---------------|
|----------------3---------------|--------------------------------|
|--------------------------------|--------------------------------|

 |       |       |       |        |       |       |       |        
|--------------------------------|--------------------------------|
|--------------------------------|--------------------------------|
|3-----------3-------0-------3---|3-------------------------------|
|----------------1---------------|--------------------------------|

 |       |       |       |        |       |       |       |        
|----------------0---------------|----------------0---------------|
|--------------------------------|--------------------------------|
|3-----------3---------------3---|3-----------3---------------3---|
|--------------------------------|--------------------------------|

 |       |       |       |        |       |       |       |        
|--------------------------------|--------------------------------|
|----------------2---------------|0-----------0-------------------|
|0-----------0---------------0---|----------------0-----------0---|
|--------------------------------|--------------------------------|

 |       |       |       |        |       |       |       |        
|--------------------------------|--------------------------------|
|----------------0-----------0---|----------------3-----------3---|
|0-----------0-------------------|3-----------3-------------------|
|--------------------------------|--------------------------------|

 |       |       |       |        |       |       |       |        
|0-------------------------------|--------------------------------|
|------------3---0---------------|--------------------------------|
|----------------------------2---|3-------------------------------|
|--------------------------------|--------------------------------|

 |       |       |       |        |       |       |       |        
|--------------------------------|--------------------------------|
|----------------2-----------2---|----------------2-------2-------|
|2-----------2-------------------|2-----------2-------2-----------|
|--------------------------------|--------------------------------|

 |       |       |       |        |       |       |       |        
|--------------------------------|--------------------------------|
|----------------2---------------|--------------------------------|
|0-----------0-------------------|0---------------0-------0-------|
|------------------------0-------|------------0-------------------|

 |       |       |       |        |       |       |       |        
|--------------------------------|--------------------------------|
|2-----------2-------------------|2-----------2-----------2-------|
|----------------2-----------2---|----------------2---------------|
|--------------------------------|--------------------------------|

 |       |       |       |        |       |       |       |        
|--------------------------------|--------------------------------|
|----------------0---------------|--------------------------------|
|0-------------------------------|--------------------------------|
|--------------------------------|3-----------3---3-------3-------|

 |       |       |       |        |       |       |       |        
|--------------------------------|----------------1---------------|
|--------------------------------|--------------------------------|
|--------------------------------|4-----------4---------------4---|
|4-------------------------------|--------------------------------|

 |       |       |       |        |       |       |       |        
|----------------1---------------|----------------1---------------|
|--------------------------------|--------------------------------|
|4-----------4---------------4---|4-----------4---------------4---|
|--------------------------------|--------------------------------|

 |       |       |       |        |       |       |       |        
|----------------1---------------|--------------------------------|
|--------------------------------|4-----------4-------------------|
|4-----------4---------------4---|----------------4-----------4---|
|--------------------------------|--------------------------------|

 |       |       |       |        |       |       |       |        
|--------------------------------|1-------------------------------|
|4-----------4-----------4-------|------------1---1-------1-------|
|----------------4---------------|--------------------------------|
|--------------------------------|--------------------------------|

 |       |       |       |        |       |       |       |        
|--------------------------------|----------------1---------------|
|--------------------------------|--------------------------------|
|--------------------------------|4-----------4---------------4---|
|4-------------------------------|--------------------------------|

 |       |       |       |        |       |       |       |        
|----------------1---------------|----------------1---------------|
|--------------------------------|--------------------------------|
|4-----------4---------------4---|4-----------4---------------4---|
|--------------------------------|--------------------------------|

 |       |       |       |        |       |       |       |        
|----------------1---------------|--------------------------------|
|--------------------------------|4-----------4-----------4-------|
|4-----------4---------------4---|----------------4---------------|
|--------------------------------|--------------------------------|

 |       |       |       |        |       |       |       |        
|1-----------------------1-------|--------------------------------|
|------------1---1---------------|--------------------------------|
|--------------------------------|4-----------4-------1-------4---|
|--------------------------------|----------------2---------------|

 |       |       |       |        |       |       |       |        
|--------------------------------|----------------1---------------|
|--------------------------------|--------------------------------|
|4-------------------------------|4-----------4---------------4---|
|--------------------------------|--------------------------------|

 |       |       |       |        |       |       |       |        
|----------------1---------------|--------------------------------|
|--------------------------------|----------------3---------------|
|4-----------4-----------4-------|1-----------1---------------1---|
|--------------------------------|--------------------------------|

 |       |       |       |        |       |       |       |        
|--------------------------------|--------------------------------|
|1-----------1---1-----------1---|----------------1-----------1---|
|--------------------------------|1-----------1-------------------|
|--------------------------------|--------------------------------|

 |       |       |       |        |       |       |       |        
|--------------------------------|1-------------------------------|
|----------------4-----------4---|------------4---1---------------|
|4-----------4-------------------|----------------------------3---|
|--------------------------------|--------------------------------|

 |       |       |       |        |       |       |       |        
|--------------------------------|----------------1---------------|
|--------------------------------|--------------------------------|
|--------------------------------|4-----------4---------------4---|
|4-------------------------------|--------------------------------|

 |       |       |       |        |       |       |       |        
|--------------------------------|----------------1---------------|
|1-----------1-------------------|--------------------------------|
|--------------------------------|4-----------4---------------4---|
|----------------4-------4-------|--------------------------------|

 |       |       |       |        |       |       |       |        
|--------------------------------|--------------------------------|
|1-----------1-------------------|--------------------3-----------|
|--------------------------------|4-------4-----------------------|
|----------------4-----------4---|----------------4-----------4---|

 |       |       |       |        |       |       |       |        
|--------3-------6---------------|--------------------------------|
|6-------------------------------|--------------------------------|
|----------------4---------------|--------------------------------|
|----6---------------------------|--------------------------------|

 
Created with TablEdit http://www.tabledit.com/

............................................................
     
Добавлено: 25.08.2013
Другие материалы по этой песне:
  • Аккорды и текст

Страница создана 25.08.2013
http://primanota.ru/shadows/the-wild-rose-chords.htm
Привет, Гость.
Предлагаем пройти революционный курс по гитаре.
Подарок от PrimaNota.Ru, забирай!