PrimaNota.ru - самый крупный в мире бесплатный архив песенных текстов, аккордов, табулатур и нот


Sepultura - Still Flame - таба, видео

Регистрация Запомнить меня
Войти через:  Facebook Google Twitter Vk Yandex Mail.ru

Sepultura - Still Flame - таба, видео

Печатать
Просмотров: 85
As recorded by Sepultura
                         (From the 2006 Album DANTE XXI)

Words by Andreas KisserMusic by Andreas Kisser & Andre Moraes
Arranged by Sepultura
Transcribed by BaronLundi

Tuning D G C F A D

Q=115
4/4

    PM--------------------------------------|
    E  E  E E  E  E E  E    E  E  E E  E  E Q   5x
||------------------------|---------------------||
||o-----------------------|--------------------o||
||--------5-------5-------|-------5-------5-----||
||-----5-------5-------5--|----5-------5--------||
||o-----------------------|--------------------o||
||--8-(8)---8-(8)---8-(8)-|-8-(8)---8-(8)---8---||


  PM--------------------------------------|
  E  E  E E  E  E E  E    E  E  E E  E  E E  E
|-----------------------|----------------------|
|-----------------------|----------------------|
|-------5-------5-------|-------5-------5------|
|----5-------5-------5--|----5-------5---------|
|-----------------------|-------------------10-|
|-8-(8)---8-(8)---8-(8)-|-8-(8)---8-(8)---8----|


    Gtr II
    E  E  E E  E  E S S  E    E  E  E E  E  E E  E   8x
||--------------------------|------------------------||
||o-------------------------|-----------------------o||
||--------5-------5---------|-------5-------5--------||
||-----6-------6---------6--|----6-------6-------6---||
||o-------------------------|-----------------------o||
||--8-(8)---8-(8)---8-8-(8)-|-8-(8)---8-(8)---8-(8)--||


3/4
    Gtr II
    E E E E E E   E E E E E E  4x
||--------------|--------------||
||o-------------|-------------o||
||------7-----7-|-----8-----8--||
||----6-----6---|---6-----6----||
||o-------------|-------------o||
||--8-----8-----|-8-----8------||


 4/4
  H.
|-------|
|-------|
|-------|
|-------|
|-------|
|-------|


 4/4
         Gtr II
    Q  E E E E E E    Q   E E E E E E
||-----------------|------------------|
||o----------------|------------------|
||-----5-----5-----|------5-----5-----|
||-----------------|------------------|
||o------3-----3---|--------3-----3---|
||-----------------|------------------|
|
|   Gtr III
|   ~~~~~~~~~~~~~~~~~~~~~
|   W                +W
||-----------------|------------------|
||o----------------|------------------|
||--8--------------|-(8)--------------|
||-----------------|------------------|
||o----------------|------------------|
||-----------------|------------------|


4/4
  Gtr II
   Q  E E E E E E     Q   E E E E E   E
|-----------------|------------------------|
|-----------------|------------------------|
|-----5-----5-----|-------5-----5----------|
|-----------------|------------------------|
|-------3-----3---|---------3-----3--------|
|-----------------|------------------------|
|
| Gtr III
|  ~~~~~~~~~~~~~~~~~~~~~~
|  W                 +W
|-----------------|------------------------|
|-----------------|------------------------|
|-10--------------|-(10)-------------------|
|-----------------|------------------------|
|-----------------|------------------------|
|-----------------|------------------------|
|
| Gtr IV                              Gtr IV
|                                 |--3---|
|  W                  H.          E E    E
|-----------------|------------------------|
|-----------------|------------------------|
|-----------------|-----------------8---10-|
|-----------------|------------------------|
|-----------------|------------------------|
|-----------------|------------------------|


 4/4
        Gtr II
   Q  E E E E E E     Q   E E E E E E
|-----------------|-------------------|
|-----------------|-------------------|
|-----5-----5-----|-------5-----5-----|
|-----------------|-------------------|
|-------3-----3---|---------3-----3---|
|-----------------|-------------------|
|
| Gtr III
|  ~~~~~~~~~~~~~~~~~~~~~~
|  W                 +W
|-----------------|-------------------|
|-----------------|-------------------|
|-12--------------|-(12)--------------|
|-----------------|-------------------|
|-----------------|-------------------|
|-----------------|-------------------|


 4/4
        Gtr II
   Q  E E E E E E     Q   E  E  E E  E E
|-----------------|-----------------------||
|-----------------|----------------------o||
|-----5-----5-----|-------5-------5-------||
|-----------------|-----------------------||
|-------3-----3---|----------3-------3---o||
|-----------------|-----------------------||
|
| Gtr III
|  ~~~~~~~~~~~~~~~~~~~~~~~
|  W                 +H.             Q
|-----------------|-----------------------||
|-----------------|----------------------o||
|-13--------------|-(13)p===========12----||
|-----------------|-----------------------||
|-----------------|----------------------o||
|-----------------|-----------------------||
|
| Gtr IV                               Gtr IV
|  W                  Q.     Q.      Q
|-----------------|-----------------------||
|-----------------|---------11-----------o||
|-----------------|-----------------13----||
|-----------------|-----------------------||
|-----------------|----------------------o||
|-----------------|-----------------------||


 4/4
       Gtr II
  Q  E E E E E E    Q   E E E E E E
|----------------|------------------|
|----------------|------------------|
|----5-----5-----|------5-----5-----|
|----------------|------------------|
|------3-----3---|--------3-----3---|
|----------------|------------------|
|
| Gtr III
| ~~~~~~~~~~~~~~~~~~~~~
| W                +H.          E E
|----------------|------------------|
|----------------|------------------|
|-5--------------|-(5)----------8-7-|
|----------------|------------------|
|----------------|------------------|
|----------------|------------------|


 4/4
        Gtr II
   Q  E E E E E E     Q   E E E E E E
|-----------------|-------------------|
|-----------------|-------------------|
|-----5-----5-----|-------5-----5-----|
|-----------------|-------------------|
|-------3-----3---|---------3-----3---|
|-----------------|-------------------|
|
| Gtr III
|  ~~~~~~~~~~~~~~~~~~~~~~~~~~~~~
|  W                 +H       H
|-----------------|-------------------|
|-----------------|-------------------|
|-10--------------|-(10)------8-------|
|-----------------|-------------------|
|-----------------|-------------------|
|-----------------|-------------------|


 4/4
        Gtr II
   Q  E E   E   E  E E    Q   E  E E  E        E  E
|----------------------|----------------------------------|
|----------------------|----------------------------------|
|-----5---------5------|------5-------5-------------------|
|----------------------|----------------------------------|
|-------3----------3---|---------3-------------3----------|
|----------------------|----------------------------------|
|
| Gtr III
|  ~~~~~~~~~~~~~~~~~~~~~~~~~~~~~~~~
|                                     |--3--|     |--3--|
|  H       +E   Q.        Q.     Q    S  S  S  E  S  S  S
|----------------------|----------------------------------|
|----------------------|----------------------------------|
|-11------(11)-12------|-16-----12---13p12p11h12h13p12p11-|
|----------------------|----------------------------------|
|----------------------|----------------------------------|
|----------------------|----------------------------------|


 4/4
                 Gtr II
   Q           E  E        E  E        E  E
|-------------------------------------------------|
|-------------------------------------------------|
|--------------5--------------5-------------------|
|-------------------------------------------------|
|-----------------3--------------------3----------|
|-------------------------------------------------|
|
| Gtr III
|     |--3--|     |--3--|     |--3--|     |--3--|
|  E  S  S  S  E  S  S  S  E  S  S  S  E  S  S  S
|-------------------------------------------------|
|-------------------------------------------------|
|-12h13p12p11h12h13p12p11h12h13p12p11h12h13p12p11h|
|-------------------------------------------------|
|-------------------------------------------------|
|-------------------------------------------------|


   Q           E E E E   E   E
|------------------------------|
|------------------------------|
|--------------5-----5---------|
|------------------------------|
|----------------3-------3-----|
|------------------------------|
|
|              ~~~~~~~~~~~~~~
|     |--3--|
|  E  S  S  S  H        +Q
|------------------------------|
|------------------------------|
|-12h13p12p11-12-------(12)\---|
|------------------------------|
|------------------------------|
|------------------------------|


 4/4
       Gtr II
  Q  E E  E  E  E E    Q   E E E E  E E
|-------------------|-------------------|
|-------------------|-------------------|
|----5-------5------|------5-----5------|
|-------------------|-------------------|
|------3--------3---|--------3------3---|
|-------------------|-------------------|
|
| Gtr III
| ~~~~~~~~~~~
| H      +E  Q.       +Q   E Q   Q.
|-------------------|-------------------|
|-------------------|-------------------|
|-5------(5)-8------|-(8)--7-4---7------|
|-------------------|-------------------|
|-------------------|-------------------|
|-------------------|-------------------|


 4/4
        Gtr II
  Q   E E  E E E E    Q     E E E E E E
|------------------|--------------------|
|------------------|--------------------|
|-----5------5-----|--------5-----5-----|
|------------------|--------------------|
|-------3------3---|----------3-----3---|
|------------------|--------------------|
|
| Gtr III
| E Q   Q.     Q     +E  Q.     Q   Q
|------------------|--------------------|
|------------------|--------------------|
|-5------------4---|-(4)-5------7---8---|
|---5---6----------|--------------------|
|------------------|--------------------|
|------------------|--------------------|


 4/4
         Gtr II
   Q   E  E  E E  E E     Q     E   E   E E   E   E
|---------------------|-----------------------------------|
|---------------------|-----------------------------------|
|------5-------5------|---------5---------5---------------|
|---------------------|-----------------------------------|
|---------3-------3---|-------------3---------3-----------|
|---------------------|-----------------------------------|
|
| Gtr III
|                                                 |--3--|
|  Q.     Q.      Q      +E   Q    +E   Q    +E   S  S  S
|---------------------|-----------------------------------|
|---------------------|-----------------------------------|
|-11-----12------16---|-(16)-17---(17)s12---(12)h13p12p11-|
|---------------------|-----------------------------------|
|---------------------|-----------------------------------|
|---------------------|-----------------------------------|


 4/4
           Gtr II
   Q    E   E        E E E E     Q   E E E E  E  E
|----------------------------|---------------------|
|----------------------------|---------------------|
|-------5--------------5-----|-------5-----5-------|
|----------------------------|---------------------|
|-----------3------------3---|---------3------3----|
|----------------------------|---------------------|
|
| Gtr III
|                                ~~~~
|           |--3--|
|  Q   +E   S  S  S  H          +Q   Q   Q   +E  E
|----------------------------|---------------------|
|----------------------------|---------------------|
|-12--(12)h13p12p11h12-------|-(12)--5---7---(7)-8-|
|----------------------------|---------------------|
|----------------------------|---------------------|
|----------------------------|---------------------|


 4/4
         Gtr II
    Q  E E   E   E  E E     Q      E E  E E    E    E
|-----------------------|-----------------------------|
|-----------------------|-----------------------------|
|------5---------5------|----------5------5-----------|
|-----------------------|-----------------------------|
|--------3----------3---|------------3---------3------|
|-----------------------|-----------------------------|
|
| Gtr III
|                                       |----3----|
|   H       +E   Q.        +E   Q.      Q    Q    Q
|-----------------------|-----------------------------|
|-----------------------|-----------------------------|
|-/12------(12)-13------|-(13)-12------10---12---10---|
|-----------------------|-----------------------------|
|-----------------------|-----------------------------|
|-----------------------|-----------------------------|


 4/4
          Gtr II
    Q   E E    E   E E E   Q   E E E E  E E
|------------------------|------------------|
|------------------------|------------------|
|-------5----------5-----|-----5-----5------|
|------------------------|------------------|
|---------3----------3---|-------3------3---|
|------------------------|------------------|
|
| Gtr III
|       |---3----|
|  +Q   Q    Q   Q   E E   Q.    Q   Q.
|------------------------|------------------|
|------------------------|------------------|
|-(10)--8---10---8---7-8-|-7-----5---4------|
|------------------------|------------------|
|------------------------|------------------|
|------------------------|------------------|


 4/4
       Gtr II
  Q  E E  E  E E E   Q   E E  E E E E
|------------------|------------------|
|------------------|------------------|
|----5-------5-----|-----5------5-----|
|------------------|------------------|
|------3-------3---|-------3------3---|
|------------------|------------------|
|
| Gtr III
| H      +E  E Q     Q.    Q.     Q
|------------------|------------------|
|------------------|------------------|
|--------------5---|-4----------------|
|-6------(6)-5-----|-------6------5---|
|------------------|------------------|
|------------------|------------------|


 4/4
        Gtr II
  Q   E E E E E E    Q       E E  E E   E E
|-----------------|-------------------------|
|-----------------|-------------------------|
|-----5-----5-----|----------5------5-------|
|-----------------|-------------------------|
|-------3-----3---|------------3--------3---|
|-----------------|-------------------------|
|
| Gtr III
| Q.    E H         +E    Q.      Q     Q
|-----------------|-------------------------|
|-----------------|-------------------------|
|-5-----7-8-------|-(8)-/11------12---/16---|
|-----------------|-------------------------|
|-----------------|-------------------------|
|-----------------|-------------------------|


 4/4
           Gtr II
   Q     E E E  E    E E   W
|------------------------|--------------|
|------------------------|--------------|
|--------5------5--------|--------------|
|------------------------|--------------|
|----------3---------3---|--------------|
|------------------------|--------------|
|
| Gtr III
|  ~~
|  W                       W
|------------------------|--------------|
|------------------------|--------------|
|-17---------------------|--------------|
|------------------------|--------------|
|------------------------|--------------|
|------------------------|--------------|
|
|    Gtr IV                Gtr IV
|      ~~~~~~~~~~~~        ~
|  E a H       +E  a Q     H    a Q  Q
|------------------------|--------------|
|------------------------|--------------|
|----2s5-------(5)-5s7---|-5----5s7--5--|
|------------------------|--------------|
|------------------------|--------------|
|------------------------|--------------|


  Gtr IV
  a H    a Q  Q    +Q   E E E E E E   E E +H     Q
|----------------|------------------|---------------|
|----------------|------------------|---------------|
|-5s4----4s5-----|------------------|---------------|
|-------------6--|-(6)--5-6-5-5-3-3-|-5-5-(5)----6--|
|----------------|------------------|---------------|
|----------------|------------------|---------------|


                                      ~~~
  E E Q  E E Q    H    E E E E   e E +H.
|---------------|--------------|------------|
|---------------|--------------|------------|
|---------------|--------------|------------|
|-5-5-3--3-3----|--------------|------------|
|------------6--|-5----3-3-2-2-|-3-3-(3)----|
|---------------|--------------|------------|


  +E  a Q.   E E e E    Q.    e  e  E  E  E     Q.    E  E  E  E  E
|--------------------|----------------------|------------------------|
|--------------------|----------------------|--------------13-15-15--|
|-----3S8----7-7h8-8-|-11----11-11-11h12-12-|-/16----16-17-----------|
|--------------------|----------------------|------------------------|
|-(3)----------------|----------------------|------------------------|
|--------------------|----------------------|------------------------|


                         ~~~
   Q   E  E  Q   E  E    Q.    E  Q   Q     Q   Q   E  E  E  E
|---------------------|------------------|---------------------|
|-16--15-16-18--16-18-|-19----19-19--19--|-19--19--19-16-15-16-|
|---------------------|------------------|---------------------|
|---------------------|------------------|---------------------|
|---------------------|------------------|---------------------|
|---------------------|------------------|---------------------|


   +E   S  S  Q   S  S  Q   S  S    Q   S  S  H     +E       H     E  E   Q
|--------------------------------|-----------------------|-------------------|
|-(16)-15h16-16--15h16-16--15h16-|-16--15h16-16----(16)\-|-/13----12-13-/16--|
|--------------------------------|-----------------------|-------------------|
|--------------------------------|-----------------------|-------------------|
|--------------------------------|-----------------------|-------------------|
|--------------------------------|-----------------------|-------------------|


                          |-3-|
   E  E  E E E E E E   Q  S S S E Q  E E   Q  E E Q  E E
|------------------7-|-------------------|---------------|
|-13-12-13-8-9-8-9---|-9--8-9-8-7-8--7-8-|-9--8-7-9--7-8-|
|--------------------|-------------------|---------------|
|--------------------|-------------------|---------------|
|--------------------|-------------------|---------------|
|--------------------|-------------------|---------------|


  H.      +E  S S   Q  E  E  E  E E E   Q.   S S Q.    e
|-----------------|----8-10-11-10-8---|------------------|
|-8-------(8)-4-7-|-8---------------9-|-8----4-8-4----/8-|
|-----------------|-------------------|------------------|
|-----------------|-------------------|------------------|
|-----------------|-------------------|------------------|
|-----------------|-------------------|------------------|


             |-3-|
  Q  E E E E S S S E   E H.           E    H.          E E
|--------------------|------------------|------------------|
|----8---------------|------------------|------------------|
|-8----8-5-8-5-8-5-4-|-5-5--------------|--------------8-7-|
|--------------------|------------------|------------------|
|--------------------|------------------|------------------|
|--------------------|------------------|------------------|
|
| Gtr III
|                      ~~~~~~~~~~~~~~~~~~~~~~~
| W                    W                  +H.          E E
|--------------------|------------------|------------------|
|--------------------|------------------|------------------|
|--------------------|-5----------------|-(5)----------8-7-|
|--------------------|------------------|------------------|
|--------------------|------------------|------------------|
|--------------------|------------------|------------------|
|
| Gtr IV
| W                    Q    E E E E E E    Q   E E E E E E
|--------------------|------------------|------------------|
|--------------------|------------------|------------------|
|--------------------|------5-----5-----|------5-----5-----|
|--------------------|------------------|------------------|
|--------------------|--------3-----3---|--------3-----3---|
|--------------------|------------------|------------------|


   ~~~~~~~~~~~~~~~~~~~~~~~~~~~~~~~~~~~~~~~~~~~~~~~~~~~~~~
   W                 +H       H          H       +E   Q.
|-----------------|-------------------|----------------------|
|-----------------|-------------------|----------------------|
|-10--------------|-(10)------8-------|-11------(11)-12------|
|-----------------|-------------------|----------------------|
|-----------------|-------------------|----------------------|
|-----------------|-------------------|----------------------|
|
|  ~~~~~~~~~~~~~~~~~~~~~~~~~~~~~~~~~~~~~~~~~~~~~~~~~~~~~~
|  W                 +H       H          H       +E   Q.
|-----------------|-------------------|----------------------|
|-----------------|-------------------|----------------------|
|-10--------------|-(10)------8-------|-11------(11)-12------|
|-----------------|-------------------|----------------------|
|-----------------|-------------------|----------------------|
|-----------------|-------------------|----------------------|
|
|  Q  E E E E E E     Q   E E E E E E    Q  E E   E   E  E E
|-----------------|-------------------|----------------------|
|-----------------|-------------------|----------------------|
|-----5-----5-----|-------5-----5-----|-----5---------5------|
|-----------------|-------------------|----------------------|
|-------3-----3---|---------3-----3---|-------3----------3---|
|-----------------|-------------------|----------------------|


  Gtr II
   ~~~~~~~~~
   Q.     E  H
|----------------------------|
|----------------------------|
|-16-----12-12---------------|
|----------------------------|
|----------------------------|
|----------------------------|
|
|  ~~~~~~~~~
|               |--3--|
|  Q.     Q     S  S  S  Q
|----------------------------|
|----------------------------|
|-16-----12----13p12p11-12---|
|----------------------------|
|----------------------------|
|----------------------------|
|
|  Q   E  E  E  E        E E
|----------------------------|
|----------------------------|
|------5--------5------------|
|----------------------------|
|---------3--------------3---|
|----------------------------|


   +E   H.                    +E    W
|---------------------------------|----------------|
|---------------------------------|----------------|
|-(12)-12--------------------(12)-|----------------|
|------10--------------------(10)-|----------------|
|---------------------------------|----------------|
|---------------------------------|----------------|
|
|           |--3--|
|  +Q       S  S  S  H         E    W
|---------------------------------|----------------|
|---------------------------------|----------------|
|-(12)-----13p12p11-12------------|----------------|
|---------------------------------|----------------|
|---------------------------------|----------------|
|---------------------------------|----------------|
|
|   Q       E        E E E E   E    Q  E E E E E E
|---------------------------------|----------------|
|---------------------------------|----------------|
|-----------5------------5--------|----5-----5-----|
|---------------------------------|----------------|
|--------------------3-----3------|------3-----3---|
|---------------------------------|----------------|


   3/4
    Gtr II
    E  E  E E  E  E   E  E  E E  E  E  4x
||------------------|------------------||
||o-----------------|-----------------o||
||------------------|------------------||
||-------12------12-|------13------13--||
||o---11------11----|---11------11----o||
||--8-------8-------|-8-------8--------||
|
|   Gtr II
|   Q     E Q     E   Q     E Q     E  4x
||------------------|------------------||
||o-----------------|-----------------o||
||--------7-------7-|-------8-------8--||
||------------------|------------------||
||o-------5-------5-|-------6-------6-o||
||------------------|------------------||


   3/4
     E   E  E E  E  E    E   E  E E  E  E  4x
||--------------------|--------------------||
||o-------------------|-------------------o||
||--------------------|--------------------||
||---------12------12-|--------13------13--||
||o-----11------11----|-----11------11----o||
||---8--------8-------|--8--------8--------||
|
|    Q      E Q     E    Q      E Q     E  4x
||--------------------|--------------------||
||o-------------------|-------------------o||
||----------7-------7-|---------8-------8--||
||--------------------|--------------------||
||o---------5-------5-|---------6-------6-o||
||--------------------|--------------------||
|
|   Gtr IV
|    H.                  H.                4x
||--------------------|--------------------||
||o-------------------|-------------------o||
||--------------------|--------------------||
||--12----------------|-13-----------------||
||o-------------------|-------------------o||
||--10----------------|-11-----------------||


   3/4
     E   E  E E  E  E    E   E  E E  E  E  9x
||--------------------|--------------------||
||o-------------------|-------------------o||
||--------------------|--------------------||
||---------12------12-|--------13------13--||
||o-----11------11----|-----11------11----o||
||---8--------8-------|--8--------8--------||
|
|    Q      E Q     E    Q      E Q     E  9x
||--------------------|--------------------||
||o-------------------|-------------------o||
||----------7-------7-|---------8-------8--||
||--------------------|--------------------||
||o---------5-------5-|---------6-------6-o||
||--------------------|--------------------||
|
|    H.                  H.                9x
||--------------------|--------------------||
||o-------------------|-------------------o||
||--14----------------|-15-----------------||
||--12----------------|-13-----------------||
||o-12----------------|-13----------------o||
||--10----------------|-11-----------------||


 6/4
   W.
|--8-----*|
|--1-----*|
|--5-----*|
|-10-----*|
|--------*|
|--8-----*|


Duration Legend
---------------
W - whole; H - half; Q - quarter; E - 8th; S - 16th; T - 32nd; X - 64th; a - acciaccatura
+ - note tied to previous; . - note dotted; .. - note double dotted
Uncapitalized letters represent notes that are staccato (1/2 duration)
Irregular groupings are notated above the duration line
Duration letters will always appear directly above the note/fret number it represents the
duration for.  Duration letters with no fret number below them represent rests.  Multi-
bar rests are notated in the form Wxn, where n is the number of bars to rest for.  Low
melody durations appear below the staff

Tablature Legend
----------------
 h   - hammer-on
 p   - pull-off
 b   - bend
 pb  - pre-bend
 r   - bend release (if no number after the r, then release immediately)
 /\  - slide into or out of (from/to "nowhere")
 s   - legato slide
 S   - shift slide
  - natural harmonic
[n]  - artificial harmonic
n(n) - tapped harmonic
 ~   - vibrato
 tr  - trill
 T   - tap
 TP  - trem. picking
 PM  - palm muting
\n/  - tremolo bar dip; n = amount to dip
 \n  - tremolo bar down
 n/  - tremolo bar up
/n\  - tremolo bar inverted dip
 =   - hold bend; also acts as connecting device for hammers/pulls
 <>  - volume swell (louder/softer)
 x   - on rhythm slash represents muted slash
 o   - on rhythm slash represents single note slash

Misc Legend
-----------
 |  - bar
||  - double bar
||o - repeat start
o|| - repeat end
*|  - double bar (ending)
 :  - bar (freetime)
 $  - Segno
 &  - Coda
Tempo markers -  = BPM(8/16=s8/s16), where s8 = swing 8ths, s16 = swing 16ths
Добавлено: 06.02.2014
Другие материалы по этой песне:
  • Аккорды и текст

Страница создана 06.02.2014
http://primanota.ru/sepultura/still-flame-chords.htm
Привет, Гость.
Предлагаем пройти революционный курс по гитаре.
Подарок от PrimaNota.Ru, забирай!