PrimaNota.ru - самый крупный в мире бесплатный архив песенных текстов, аккордов, табулатур и нот


Sepultura - Jasco - аккорды и текст, таба, видео

Регистрация Запомнить меня
Войти через:  Facebook Google Twitter Vk Yandex Mail.ru

Sepultura - Jasco - аккорды и текст, таба, видео

Печатать
Просмотров: 180
Авторы музыки: Andreas Kisser

Jasco
Sepultura
-----------12---------10--------7--------5--------------------------
-12------------11---------9--------9--------9-----------------------
-12----------------9---------7--------7--------7--------------------
-12-------------------0------------------0--------------------------
-12-----------------------------------------------------------------
-12-----0-----------------------0-----------------------------------

9--------7--------4--------4----------------------------------------
---9--------9--------3--------3-------------------------------------
------7--------7--------2--------2----------------------------------
---------0-----------------0----------------------------------------
--------------------------------------------------------------------
0-----------------0-------------------------------------------------

||---5--------5--------5--------5-----------------------
||------3--------3--------3--------3--------------------
||*--------2--------2--------2--------2--*--------------
||*-----------0-----------------0--------*--------------
--------------------------------
||---0-----------------0--------------------------------

12---------10--------7--------5-------------------------------------
----11---------9--------9--------9----------------------------------
--------9---------7--------7--------7-------------------------------
-----------0------------------0-------------------------------------
--------------------------------------------------------------------
0--------------------0----------------------------------------------

9--------7--------4--------4--------|--5--------5--------5--------5--------|----
---9--------9--------3--------3-----|-----3--------3--------3--------3-----|----
------7--------7--------2--------2--|--------2--------2--------2--------2--|----
---------0-----------------0--------0-----------------0--------|----
---------------------------------------------------------------|----
0-----------------0-----------------|--0-----------------0-----------------|----

4--------4--------4--------7--------||---8--------8--------8--------8---------||
---3--------3--------3--------5-----||------7--------7--------7--------7------||
------2--------2--------2--------4--||*--------5--------5--------5--------5--*||
---------0-----------------0--------||*--------------------0-----------------*||
------------------------------------------------------||
0-----------------0-----------------||---0------------------------------------||

-----7--4h5---------------------|-------7--4h5----------4--5p4------
-------------7----------7p5---------7---------------7---
4h5------------------7-------7--|--4h5-------------5h7--------------
--------0-------6h7-----0-------|----------0---------------0--------
--------------------------------------------------------
0---------------0---------------|--0---------------0----------------

---------------------7--4h5-----------------7--4h5------
--------7p5------------------7--|----------7p5------------------7---
-----7-------7--4h5-------------|-------7-------7--4h5--------------
6h7-----0---------------0-------|--6h7-----0---------------0--------
--------------------------------------------------------
0---------------0---------------|--0---------------0----------------

-----4--5p4----------------------|----------4h5----------------------|----------
-------------7--------3--5p3-----|-------7-------7--------5--7p5-----|----------
5h7----------------5----------5--|--4/5----------------7----------7--|----------
--------0----------------0-------|----------0----------------0-------|----------
---------------------------------------------------------|----------
0---------------0----------------|--0---------------0----------------|----------

--------5h7---------------------------------------------
-----9-------9--------7--9h7--|-------7--7h9-----------5--7p5-------
5/7----------------9----------|--7h9----------9-----7----------7----
--------0----------------0----|----------0----------------0---------
--------------------------------------------------------
0---------------0-------------|--0---------------0------------------

-------------------------4h5---------------------5h7-----|----------
------3--5p3----------7-------7--|--------5--7p5----------9-------9--|----------
---5----------5--4/5-------------|-----7----------7--5/7-------------|----------
---------0---------------0-------0---------------0-------|----------
---------------------------------------------------------|----------
0----------------0---------------|--0----------------0---------------|----------

--------------------------------------------------------
------7--9h7-------7--7h9-----|--------5--7p5-----------3--5p3------
---9----------7h9----------9--|-----7----------7-----5----------5---
---------0------------0-------0----------------0--------
--------------------------------------------------------
0-------------0---------------|--0----------------0-----------------

----------------------------------|-------0--2p0----------0--2p0-----|----------
------5--7p5-----------3--5p3---------3---------------3--|----------
---7----------7-----5----------5--|--1h2-------------1h2-------------|----------
---------0----------------0-------|----------0---------------0-------|----------
---------------------------------------------------------|----------
0----------------0----------------|--0---------------0---------------|----------

-----------0----------0--2p0-----|----------4h5-------------4h5-----
-----3--------3---------------3--|-------7-------7-------7-------7--
1h2--------------1h2-------------|--4/5-------------4/5-------------
--------0----------------0-------|----------0---------------0-------
--------------------------------------------------------
0----------------0---------------|--0---------------0---------------

--------4h5-------------4h5-----|----------5h7-------------5h7------
-----7-------7-------7-------7--|-------9-------9-------9-------9---
4/5-------------4/5-------------|--5/7-------------5/7--------------
--------0---------------0-------|----------0---------------0--------
--------------------------------------------------------
0---------------0---------------|--0---------------0----------------

--------5h7-------------5h7-----|-----------------|-----
-----9-------9-------9-------9--|--||---------5--7p5-----------3--5p3-----|-----
5/7-------------5/7-------------|--||*-----7----------7-----5----------5--|-----
--------0---------------0-------|--||*-----------0----------------0-------|-----
--------------------------------|-----------------|-----
0---------------0---------------|--||---0----------------0----------------|-----

-----------------------------------||--2-----2--2--2--2--4-----4-----4-----|----
------5--7p5-----------3--5p3------||--3-----3--3--3--3--3-----3-----3-----|----
---7----------7-----5----------5--*||--2-----2--2--2--2--1-----1-----1-----|----
---------0----------------0-------*||--0-----0--0--0--0--0-----0-----0-----|----
-----------------------------------||--0-----0--0--0--0--0-----0-----0-----|----
0----------------0-----------------||--0-----0--0--0--0--0-----0-----0-----|----

7-----7--7--7-----8-----8--8--8--8--|--8-----8--8--8--8--8-----8--8--8--8--|----
5-----5--5--5-----7-----7--7--7--7--|--7-----7--7--7--7--7-----7--7--7--7--|----
4-----4--4--4-----5-----5--5--5--5--|--5-----5--5--5--5--5-----5--5--5--5--|----
0-----0--0--0-----0-----0--0--0--0--|--0-----0--0--0--0--0-----0--0--0--0--|----
0-----0--0--0-----0-----0--0--0--0--|--6-----6--6--6--6--0-----0--0--0--0--|----
0-----0--0--0-----0-----0--0--0--0--|--0-----0--0--0--0--0-----0--0--0--0--|----

8--8--8--8--8--8--8-----8--8--8--8--|--8-----8--8--8--8--8-----8--8--8--8--|----
7--7--7--7--7--7--7-----7--7--7--7--|--7-----7--7--7--7--7-----7--7--7--7--|----
5--5--5--5--5--5--5-----5--5--5--5--|--5-----5--5--5--5--5-----5--5--5--5--|----
0--0--0--0--0--0--0-----0--0--0--0--|--0-----0--0--0--0--0-----0--0--0--0--|----
6--6--6--6--6--6--0-----0--0--0--0--|--6-----6--6--6--6--0-----0--0--0--0--|----
0--0--0--0--0--0--0-----0--0--0--0--|--0-----0--0--0--0--0-----0--0--0--0--|----

8--------8--------8-----8--8--8--8--|--8-----8--8--8--8--8-----8--8--8--8--|----
7--------7--------7-----7--7--7--7--|--7-----7--7--7--7--7-----7--7--7--7--|----
5--------5--------5-----5--5--5--5--|--5-----5--5--5--5--5-----5--5--5--5--|----
0--0--0--0--0--0--0-----0--0--0--0--|--0-----0--0--0--0--0-----0--0--0--0--|----
6--0--0--6--0--0--0-----0--0--0--0--|--6-----6--6--6--6--0-----0--0--0--0--|----
0--0--0--0--0--0--0-----0--0--0--0--|--0-----0--0--0--0--0-----0--0--0--0--|----

8--8--8--8--8--8--8-----8--8--8--8--|--8--8--8--8--8--8--8-----8--8--8--8--|----
7--7--7--7--7--7--7-----7--7--7--7--|--7--7--7--7--7--7--7-----7--7--7--7--|----
5--5--5--5--5--5--5-----5--5--5--5--|--5--5--5--5--5--5--5-----5--5--5--5--|----
0--0--0--0--0--0--0-----0--0--0--0--|--0--0--0--0--0--0--0-----0--0--0--0--|----
6--6--6--6--6--6--0-----0--0--0--0--|--6--6--6--6--6--6--0-----0--0--0--0--|----
0--0--0--0--0--0--0-----0--0--0--0--|--0--0--0--0--0--0--0-----0--0--0--0--|----

8--------8--------|--5-----5--5-----5--5--5-----5-----5--5--5--5----
7--------7--------|--9-----9--9-----9--9--9-----9-----9--9--9--9----
5--------5--------|--7-----7--7-----7--7--7-----7-----7--7--7--7----
0--0--0--0--0--0--|--0----------------------------------------------
6--0--0--6--0--0--|--0----------------------------------------------
0--0--0--0--0--0--|--0----------------------------------------------

5-----5--5-----5--5--5-----5-----5--5--5--5-------------------------
9-----9--9-----9--9--9-----9-----9--9--9--9-------------------------
7-----7--7-----7--7--7-----7-----7--7--7--7-------------------------
0-------------------------------------------------------------------
0-------------------------------------------------------------------
0-------------------------------------------------------------------

--5-----5--5-----5--5--5-----5-----5--5--5--5-----------------------
--9-----9--9-----9--9--9-----9-----9--9--9--9-----------------------
--7-----7--7-----7--7--7-----7-----7--7--7--7-----------------------
--0-----------------------------------------------------------------
--0-----------------------------------------------------------------
--0-----------------------------------------------------------------
Gradually slower toward the end 

5-----5--5-----5--5--5-----5-----5--5--5--5-------------------------
9-----9--9-----9--9--9-----9-----9--9--9--9-------------------------
7-----7--7-----7--7--7-----7-----7--7--7--7-------------------------
0-------------------------------------------------------------------
0-------------------------------------------------------------------
0-------------------------------------------------------------------

5-------------------------------------------------------
---9----------------------------------------------------
------7-------------------------------------------------
---------0----------------------------------------------
------------0-------------------------------------------
---------------0----------------------------------------
Добавлено: 13.03.2012
Другие материалы по этой песне:

Страница создана 03.03.2012
http://primanota.ru/sepultura/jasco-chords.htm
Привет, Гость.
Предлагаем пройти революционный курс по гитаре.
Подарок от PrimaNota.Ru, забирай!