PrimaNota.ru - самый крупный в мире бесплатный архив песенных текстов, аккордов, табулатур и нот


Sepultura - A-lex Iii - таба, видео

Регистрация Запомнить меня
Войти через:  Facebook Google Twitter Vk Yandex Mail.ru

Sepultura - A-lex Iii - таба, видео

Печатать
Просмотров: 68
                                    A-LEX III
                            As recorded by Sepultura
                           (From the 2009 Album A-LEX)

Music by Jean Dolabella, Derrick Green & Andreas Kisser
Arranged by Sepultura

Transcribed by BaronLundi

Tuning (Bb Eb Ab Db F Bb)

3/4

    PM----|       PM----|
    e e e e E E   e e e e E E  8x
||--------------|--------------||
||o-------------|-------------o||
||--------------|--------------||
||----------6---|---------5----||
||o-----8-7---7-|-----8-7-----o||
||--0-7---------|-0-7-------6--||


    E E E E E E   E E E E E E  4x
||--------------|--------------||
||o-------------|-------------o||
||--------------|--------------||
||----------6---|---------5----||
||o-----8-7---7-|-----8-7-----o||
||--0-7---------|-0-7-------6--||


    E E E E  E E     E  E E  E E E  4x
||---------------|------------------||
||o--------------|-----------------o||
||---------------|------------------||
||----------10-9-|-/11-10-9---------||
||o----------8-7-|--/9--8-7-10-9-8-o||
||--0-6-7-8------|-----------8-7-6--||


     E  E E E  E E     E   E E  E E E  3x
||-----------------|-------------------||
||o----------------|------------------o||
||-----------------|-------------------||
||------------10-9-|-/11--10-9---------||
||o------------8-7-|--/9---8-7-10-9-8-o||
||---0--6-7-8------|------------8-7-6--||
|
|    H.               +H.              3x
||-----------------|-------------------||
||o-12-------------|-(12)-------------o||
||-----------------|-------------------||
||-----------------|-------------------||
||o----------------|------------------o||
||-----------------|-------------------||


   E  E E E  E E     E   E E  E E E
|----------------|------------------|
|----------------|------------------|
|----------------|------------------|
|-----------10-9-|-/11--10-9--------|
|------------8-7-|--/9---8-7-10-9-8-|
|--0--6-7-8------|------------8-7-6-|
|
|  H.               +H.
|-11-------------|-(11)-------------|
|-12-------------|-(12)-------------|
|----------------|------------------|
|----------------|------------------|
|----------------|------------------|
|----------------|------------------|


 4/4
   PM----|
   E E E E H          +W
|-------------------|-----------------|
|-------------------|-----------------|
|-------------------|-----------------|
|-------------------|-----------------|
|-/6-2-2-5-3--------|-(3)-------------|
|-/4-0-0-3-1--------|-(1)-------------|
|
|  H       Q  +E  E   +Q   Q.   Q.
|-------------------|-----------------|
|-----------------1-|-(1)-------1-----|
|----------4--(4)---|------4----------|
|-------------------|-----------------|
|-------------------|-----------------|
|-------------------|-----------------|


     PM----|
     E E E E H          +W              3x
||--------------------|-----------------||
||o-------------------|----------------o||
||--------------------|-----------------||
||--------------------|-----------------||
||o-/6-2-2-5-3--------|-(3)------------o||
||--/4-0-0-3-1--------|-(1)-------------||
|
|    Q   Q   Q  +E  E   +Q   Q.   Q.    3x
||--------------------|-----------------||
||o-----------------1-|-(1)-------1----o||
||---4-------4--(4)---|------4----------||
||--------------------|-----------------||
||o-------------------|----------------o||
||--------------------|-----------------||


  PM---|
  Q.   +E  +H       +W
|-----------------|--------*|
|-----------------|--------*|
|-----------------|--------*|
|-----------------|--------*|
|-2----(2)-(2)----|-(2)----*|
|-0----(0)-(0)----|-(0)----*|
|
| W                  W
|-----------------|--------*|
|-----------------|--------*|
|-4---------------|--------*|
|-----------------|--------*|
|-----------------|--------*|
|-----------------|--------*|


Duration Legend
---------------
W - whole; H - half; Q - quarter; E - 8th; S - 16th; T - 32nd; X - 64th; a - acciaccatura
+ - note tied to previous; . - note dotted; .. - note double dotted
Uncapitalized letters represent notes that are staccato (1/2 duration)
Irregular groupings are notated above the duration line
Duration letters will always appear directly above the note/fret number it represents the
duration for.  Duration letters with no fret number below them represent rests.  Multi-
bar rests are notated in the form Wxn, where n is the number of bars to rest for.  Low
melody durations appear below the staff

Tablature Legend
----------------
 h   - hammer-on
 p   - pull-off
 b   - bend
 pb  - pre-bend
 r   - bend release (if no number after the r, then release immediately)
 /\  - slide into or out of (from/to "nowhere")
 s   - legato slide
 S   - shift slide
  - natural harmonic
[n]  - artificial harmonic
n(n) - tapped harmonic
 ~   - vibrato
 tr  - trill
 T   - tap
 TP  - trem. picking
 PM  - palm muting
\n/  - tremolo bar dip; n = amount to dip
 \n  - tremolo bar down
 n/  - tremolo bar up
/n\  - tremolo bar inverted dip
 =   - hold bend; also acts as connecting device for hammers/pulls
 <>  - volume swell (louder/softer)
 x   - on rhythm slash represents muted slash
 o   - on rhythm slash represents single note slash

Misc Legend
-----------
 |  - bar
||  - double bar
||o - repeat start
o|| - repeat end
*|  - double bar (ending)
 :  - bar (freetime)
 $  - Segno
 &  - Coda
Tempo markers -  = BPM(8/16=s8/s16), where s8 = swing 8ths, s16 = swing 16ths
Добавлено: 12.12.2013
Другие материалы по этой песне:
  • Аккорды и текст

Страница создана 12.12.2013
http://primanota.ru/sepultura/a-lex-iii-chords.htm
Привет, Гость.
Предлагаем пройти революционный курс по гитаре.
Подарок от PrimaNota.Ru, забирай!