PrimaNota.ru - самый крупный в мире бесплатный архив песенных текстов, аккордов, табулатур и нот


Sepultura - Crown And Miter - таба, видео

Регистрация Запомнить меня
Войти через:  Facebook Google Twitter Vk Yandex Mail.ru

Sepultura - Crown And Miter - таба, видео

Печатать
Просмотров: 87
Уроки эстрадного вокала в Санкт-Петербурге
CROWN AND MITER
                            As recorded by Sepultura
                         (From the 2006 Album DANTE XXI)

Words by Derrick Green

Music by Igor Cavalera, Derrick Green, Andreas Kisser & Paulo Jr.
Transcribed by BaronLundi

Gtr I (E A D G B E) - 'Guitar'

Q=160
4/4
Gtr I
     E.  E.  Q   E  E  E    E.  E.  Q   E  E  E  3x
||-----------------------|-----------------------||
||o----------------------|--7---7---7---7--7--7-o||
||--10--10--10--10-10-10-|-10--10--10--10-10-10--||
||-----------------------|-----------------------||
||o--8---8---8---8--8--8-|----------------------o||
||-----------------------|-----------------------||


   E.  E.  Q   E  E  E    E.  E.  Q   E  E E
|----------------------|---------------------|
|----------------------|--7---7---7---7--7---|
|-10--10--10--10-10-10-|-10--10--10--10-10---|
|----------------------|---------------------|
|--8---8---8---8--8--8-|---------------------|
|----------------------|-------------------0-|


    PM------------------------------------------------------------|
    E S S S S S S S S S S S S S S   S S S S S S S S S S S S S S S S  3x
||--------------------------------|----------------------------------||
||o-------------------------------|---------------------------------o||
||--------------------------------|----------------------------------||
||--------------------------------|----------------------------------||
||o-------------------------------|---------------------------------o||
||--2p1-1-1-1-1-1-2p1-1-1-1-1-1-1-|-2p1-1-1-1-1-1-1-2p1-1-1-1-1-1-1--||


  PM----------------------------|
  S S S S S S S S S S S S S S S S   S S S S S S S S S S S S S S S S
|---------------------------------|---------------------------------|
|---------------------------------|---------------------------------|
|---------------------------------|---------------------------------|
|---------------------------------|---------------------------------|
|---------------------------------|-3-3-3-3-3-3-3-3-3-3-3-3-3-3-3-3-|
|-2p1-1-1-1-1-1-1-2p1-1-1-1-1-1-1-|-1-1-1-1-1-1-1-1-1-1-1-1-1-1-1-1-|


     E.  E.  Q   E  E  E    E.  E.  Q   E  E  E  3x
||-----------------------|-----------------------||
||o----------------------|--7---7---7---7--7--7-o||
||--10--10--10--10-10-10-|-10--10--10--10-10-10--||
||-----------------------|-----------------------||
||o--8---8---8---8--8--8-|----------------------o||
||-----------------------|-----------------------||


   E.  E.  Q   E  E  E    E.  E.  Q   E  E E
|----------------------|---------------------|
|----------------------|--7---7---7---7--7---|
|-10--10--10--10-10-10-|-10--10--10--10-10---|
|----------------------|---------------------|
|--8---8---8---8--8--8-|---------------------|
|----------------------|-------------------0-|


    PM--------------------------------------------------------------|
    S S S S S S S S S S S S S S S S   S S S S S S S S S S S S S S S S   4x
||----------------------------------|-----------------------------------||
||o---------------------------------|----------------------------------o||
||----------------------------------|-----------------------------------||
||----------------------------------|-----------------------------------||
||o---------------------------------|----------------------------------o||
||--2p1-1-1-1-1-1-1-2p1-1-1-1-1-1-1-|-2p1-1-1-1-1-1-1-2p1-1-1-1-1-1-1---||


    E. E.   E  E  E  E  E    E. E. E   E  E  E  E
||-------------------------|-----------------------|
||o------------------------|-----------------------|
||-------------------------|-----------------------|
||-------------------------|-----------------------|
||o-3--3--/14-14-14-14-14\-|-3--3--3-/14-14-14-14\-|
||--1--1--/13-13-13-13-13\-|-1--1--1-/13-13-13-13\-|
|
|   Gtr I
|   E. E.   E  E  E  E  E    E. E. E   E  E  E  E
||-------------------------|-----------------------|
||o---------7--7--7--7--7--|----------/7--7--7--7\-|
||--------/10-10-10-10-10\-|---------/10-10-10-10\-|
||-------------------------|-----------------------|
||o------------------------|-----------------------|
||-------------------------|-----------------------|


  E. E.   E  E  E  E  E    Q.     E   H
|------------------------|------------------------||
|------------------------|-----------------------o||
|------------------------|------------------------||
|------------------------|------------------------||
|-3--3--/14-14-14-14-14\-|-3---------------------o||
|-1--1--/13-13-13-13-13\-|-1------1/-/6\----------||
|
| E. E.   E  E  E  E  E    Q.     E   E   E  E
|------------------------|------------------------||
|--------/7--7--7--7--7\-|--------7---7---7--7---o||
|-------/10-10-10-10-10\-|------/10--10--10-10\---||
|------------------------|------------------------||
|------------------------|-----------------------o||
|------------------------|------------------------||


    E. E.   E  E  E  E  E    E. E.   E  E  E  E  E   4x
||-------------------------|-------------------------||
||o------------------------|------------------------o||
||-------------------------|-------------------------||
||-------------------------|-------------------------||
||o-3--3--/14-14-14-14-14\-|-3--3--/14-14-14-14-14\-o||
||--1--1--/13-13-13-13-13\-|-1--1--/13-13-13-13-13\--||
|
|   E. E.   E  E  E  E  E    E. E.   E  E  E  E  E   4x
||-------------------------|-------------------------||
||o---------7--7--7--7--7--|--------/7--7--7--7--7\-o||
||--------/10-10-10-10-10\-|-------/10-10-10-10-10\--||
||-------------------------|-------------------------||
||o------------------------|------------------------o||
||-------------------------|-------------------------||


    Q.   Q  Q  E   Q.   Q  Q  E  4x
||---------------|---------------||
||o--------------|--------------o||
||---------------|---------------||
||---------------|---------------||
||o-3----4--5--6-|-3----4--5--6-o||
||--1----2--3--4-|-1----2--3--4--||


     E.  E.  Q   E  E  E    E.  E.  Q   E  E  E  4x
||-----------------------|-----------------------||
||o----------------------|--7---7---7---7--7--7-o||
||--10--10--10--10-10-10-|-10--10--10--10-10-10--||
||-----------------------|-----------------------||
||o--8---8---8---8--8--8-|----------------------o||
||-----------------------|-----------------------||


    Gtr I
    E. E.   E  E  E  E  E    E. E.   E  E  E  E  E   4x
||-------------------------|-------------------------||
||o------------------------|------------------------o||
||-------------------------|-------------------------||
||-------------------------|-------------------------||
||o-3--3--/14-14-14-14-14\-|-3--3--/14-14-14-14-14\-o||
||--1--1--/13-13-13-13-13\-|-1--1--/13-13-13-13-13\--||
|
|   Gtr I
|   E. E.   E  E  E  E  E    E. E.   E  E  E  E  E   4x
||-------------------------|-------------------------||
||o---------7--7--7--7--7--|--------/7--7--7--7--7\-o||
||--------/10-10-10-10-10\-|-------/10-10-10-10-10\--||
||-------------------------|-------------------------||
||o------------------------|------------------------o||
||-------------------------|-------------------------||


    Q.   Q  Q  E   Q.   Q  Q  E  4x
||---------------|---------------||
||o--------------|--------------o||
||---------------|---------------||
||---------------|---------------||
||o-3----4--5--6-|-3----4--5--6-o||
||--1----2--3--4-|-1----2--3--4--||


  Q  Q.   H      W
|--------------|------*|
|--------------|------*|
|--------------|------*|
|--------------|------*|
|-3--3\--------|------*|
|-1--1---------|------*|


Duration Legend
---------------
W - whole; H - half; Q - quarter; E - 8th; S - 16th; T - 32nd; X - 64th; a - acciaccatura
+ - note tied to previous; . - note dotted; .. - note double dotted
Uncapitalized letters represent notes that are staccato (1/2 duration)
Irregular groupings are notated above the duration line
Duration letters will always appear directly above the note/fret number it represents the
duration for.  Duration letters with no fret number below them represent rests.  Multi-
bar rests are notated in the form Wxn, where n is the number of bars to rest for.  Low
melody durations appear below the staff

Tablature Legend
----------------
 h   - hammer-on
 p   - pull-off
 b   - bend
 pb  - pre-bend
 r   - bend release (if no number after the r, then release immediately)
 /\  - slide into or out of (from/to "nowhere")
 s   - legato slide
 S   - shift slide
  - natural harmonic
[n]  - artificial harmonic
n(n) - tapped harmonic
 ~   - vibrato
 tr  - trill
 T   - tap
 TP  - trem. picking
 PM  - palm muting
\n/  - tremolo bar dip; n = amount to dip
 \n  - tremolo bar down
 n/  - tremolo bar up
/n\  - tremolo bar inverted dip
 =   - hold bend; also acts as connecting device for hammers/pulls
 <>  - volume swell (louder/softer)
 x   - on rhythm slash represents muted slash
 o   - on rhythm slash represents single note slash

Misc Legend
-----------
 |  - bar
||  - double bar
||o - repeat start
o|| - repeat end
*|  - double bar (ending)
 :  - bar (freetime)
 $  - Segno
 &  - Coda
Tempo markers -  = BPM(8/16=s8/s16), where s8 = swing 8ths, s16 = swing 16ths
Добавлено: 03.10.2013
Вам также может быть интересно:
Другие материалы по этой песне:
  • Аккорды и текст

Страница создана 03.10.2013
http://primanota.ru/sepultura/crown-and-miter-chords.htm
Привет, Гость.
Предлагаем пройти революционный курс по гитаре.
Подарок от PrimaNota.Ru, забирай!