PrimaNota.ru - самый крупный в мире бесплатный архив песенных текстов, аккордов, табулатур и нот


Senses Fail - Stretch Your Legs To Coffin Length - текст песни, таба, видео

Регистрация Запомнить меня
Войти через:  Facebook Google Twitter Vk Yandex Mail.ru

Senses Fail - Stretch Your Legs To Coffin Length - текст песни, таба, видео

Печатать
Просмотров: 110
Song: Stretch Your Legs To Coffin Length
Artist: Senses Fail
Album: Calling All Cars - Single (Still Searching B - Side)
Tuning: Drop D
Email: DCLine320@yahoo.com

Notes: This song was released on the Calling All Cars - Single
so some of you may have not heard it. It is a very good song,
I suggest buying it off Itunes for $0.99. This Song is fairly
easy to play. Once you get the rhtyhm down you'll be fine.
Note about the chorus lead, some of those notes ARE accurate,
it's hard for me to hear and I am a bit to lazy to sit there
for a while, if you play around with what I give you and improv.
a little bit you should get it down.

Guitar Parts:
 - Synth 1 - Played through the verses and intro. I tabbed the
parts out just to show you what it sounds like. I think it
may be an actual guitar with some sort of delay or something.
But anyway, the synth part is in there. The part actually
goes to both ears if your listening to headphones. The sound
goes left, right, left, etc. So there is no specific pan for
this guitar.

 - Guitar 1 - Electric With Distortion - Pan Right

 - Guitar 2 - Electric With Distortion - Pan Left

 - Guitar 3 - Electric With Distortion - Pan Neutral

Okay here is where the actual tab starts:


Intro:

Synth 1:
e|-------------------------------------|
B|-------------------------------------|
G|---6-6-6-6-6-6-7-7-7-7-7-7-7-7-7-7---| <--(x2)
D|-------------------------------------|
A|-------------------------------------|
D|-------------------------------------|



1st Verse Part 1:

Synth 1:
e|-------------------------------------|
B|-------------------------------------|
G|---6-6-6-6-6-6-7-7-7-7-7-7-7-7-7-7---| <--(x2)
D|-------------------------------------|
A|-------------------------------------|
D|-------------------------------------|

Guitar 1, 2:
e|------------------------------------|
B|------------------------------------|
G|------------------------------------| <--(Note: Watch Your Timing)
D|------------------------------------|
A|---9-9-9-9-9-7-9----9-9-9-9-9-7-9---|
D|---9-9-9-9-9-7-9----9-9-9-9-9-7-9---|
PM   . . . . . . .    . . . . . . .


1st Verse Part 2:

Synth 1:
e|---------------------------------------------------------------------|
B|---------------------------------------------------------------------|
G|---6-6-6-6-6-6-9-9-9-9-9-9-9-9-9-9-7-7-7-7-7-7-6-6-6-----------------| 
D|-----------------------------------------------------7-7-7-7-7-7-7---|
A|---------------------------------------------------------------------|
D|---------------------------------------------------------------------|

Guitar 1, 2:
e|------------------------------------|
B|------------------------------------|
G|------------------------------------| <--(Note: Watch Your Timing)
D|------------------------------------|
A|---5-5-5-5-5-4-4----5-5-5-5-5-2-2---|
D|---5-5-5-5-5-4-4----5-5-5-5-5-2-2---|
PM   . . . . . . .    . . . . . . .


1st Verse Part 3:

Synth 1:
e|-------------------------------------|
B|-------------------------------------|
G|---6-6-6-6-6-6-----------------------| <--(x2)
D|---------------7-7-7-7-7-7-7-7-7-7---|
A|-------------------------------------| NH -> Natural Harmonic
D|-------------------------------------|
NH               * * * * * * * * * *

Guitar 1, 2:
e|------------------------------------|
B|------------------------------------|
G|------------------------------------| <--(Note: Watch Your Timing)
D|------------------------------------|
A|---9-9-9-9-9-7-9----9-9-9-9-9-7-9---|
D|---9-9-9-9-9-7-9----9-9-9-9-9-7-9---|
PM   . . . . . . .    . . . . . . .


1st Verse Part 4:
Synth 1:
e|-------------------------------------|
B|-------------------------------------|
G|---6-6-6-6-6-6-9-9-9-9-9-9-9-9-9-9---| 
D|-------------------------------------|
A|-------------------------------------|
D|-------------------------------------|

Guitar 1, 2:
e|------------------|
B|------------------|
G|-------------7----| (With the 1/12\7 you pluck on one and just slide
D|------------------|  up and back down the fretboard, then pluck the
A|------------------|  natural harmonic)
D|---1/12\7---------|
NH             *


1st Verse Part 5:
Guitar 1, 2:
e|----------------------------------|
B|----------------------------------|
G|----------------------------------|
D|---2--2-2-2-2-2--2-2-2-2-2--2-2---|
A|---2--2-2-2-2-2--2-2-2-2-2--2-2---|
D|---2--2-2-2-2-2--2-2-2-2-2--2-2---|



Pre-Chorus:

Guitar 1,2:
e|-----------------------------------------------------------------------|
B|-----------------------------------------------------------------------|
G|-------------------6-6-6-6-6/9-9-9------------------1111111111\9-9-9---|
D|---9--9-9-9-0-0--0-x-x-x-x-x-x-x-x--5--5-5-5-0-0--0--x-x-x-x-x-x-x-x---|
A|---9--9-9-9-0-0--0-4-4-4-4-4/7-7-7--5--5-5-5-0-0--0--9-9-9-9-9\7-7-7---|
D|---9--9-9-9-0-0--0------------------5--5-5-5-0-0--0--------------------|


Then:

Guitar 1:
e|---------------------------------------------------------------------|
B|---------------------------------------------------------------------|
G|-------------------9-9-9-9-9/12-12-12--------------------------------|
D|---9--9-9-9-0-0--0-x-x-x-x-x--x--x--x--5-----4-----0--0-0-0-0--0-0---|
A|---9--9-9-9-0-0--0-7-7-7-7-7/-9--9--9--5-----4-----0--0-0-0-0--0-0---|
D|---9--9-9-9-0-0--0---------------------5-----4-----0--0-0-0-0--0-0---|

Guitar 2:
e|------------------------------------------------------------------|
B|------------------------------------------------------------------|
G|-------------------6-6-6-6-6/9-9-9--------------------------------|
D|---9--9-9-9-0-0--0-x-x-x-x-x-x-x-x--5-----4-----0--0-0-0-0--0-0---|
A|---9--9-9-9-0-0--0-4-4-4-4-4/7-7-7--5-----4-----0--0-0-0-0--0-0---|
D|---9--9-9-9-0-0--0------------------5-----4-----0--0-0-0-0--0-0---|


Chorus:

Guitar 3:
e|-------------------------------------------------------------|
B|-------------------------------------------------------------|
G|-------------------------------------------------------------|
D|---9--9-9-9-9-0--0-0-0-0--0-0---5--5-5-5-5-0--0-0-0-0--0-0---|
A|---9--9-9-9-9-0--0-0-0-0--0-0---5--5-5-5-5-0--0-0-0-0--0-0---|
D|---9--9-9-9-9-0--0-0-0-0--0-0---5--5-5-5-5-0--0-0-0-0--0-0---|

Guitar 2: (Hard For Me To Get, Just kinda play around with what I give you)
e|---------------------------------14h15-14---------------------------|
B|---------14/15-------------14/15----------15-15\14------------------|
G|---11h12-------12p11-11h12-------------------------11h12-12p11------|
D|---------------------------------------------------------------12---|
A|--------------------------------------------------------------------|
D|--------------------------------------------------------------------|


Then:

Guitar 3:
e|--------------------------------------------------------------|
B|--------------------------------------------------------------|
G|--------------------------------------------------------------|
D|---9--9-9-9-9-0--0-0-0-0--0-0---5-----4-----0--0-0-0-0--0-0---|
A|---9--9-9-9-9-0--0-0-0-0--0-0---5-----4-----0--0-0-0-0--0-0---|
D|---9--9-9-9-9-0--0-0-0-0--0-0---5-----4-----0--0-0-0-0--0-0---|

Guitar 2: (Hard For Me To Get, Just kinda play around with what I give you)
e|---------------------------------14h15-14---------------------|
B|---------14/15-------------14/15----------15-15h17-15h17-15---|
G|---11h12-------12p11-11h12------------------------------------|
D|--------------------------------------------------------------|
A|--------------------------------------------------------------|
D|--------------------------------------------------------------|



Now Repeat: 
 
 - Verse (Part 1 - Part 5)

 - Pre-Chorus

 - Chorus


Bridge:

Guitar 3:
e|----------------------------------------------------------------------|
B|----------------------------------------------------------------------|
G|----------------------------------------------------------------------|
D|---2-2-2-2-2-2-2-2-2-2-2-2-2-2-2-2--4-4-4-4-4-4-4-4-4-4-4-4-4-4-4-4---|
A|---2-2-2-2-2-2-2-2-2-2-2-2-2-2-2-2--4-4-4-4-4-4-4-4-4-4-4-4-4-4-4-4---|
D|---2-2-2-2-2-2-2-2-2-2-2-2-2-2-2-2--4-4-4-4-4-4-4-4-4-4-4-4-4-4-4-4---|

Guitar 1:
e|---14p12-14p12-14p12-14p12------------------------|
B|--------------------------------------------------|
G|----------------------------11p9-11p9-11p9-11p9---| <--(x2)
D|--------------------------------------------------|
A|--------------------------------------------------|
D|--------------------------------------------------|


Then:

Guitar 3:
e|-----------------------------------------|
B|-----------------------------------------|
G|-----------------------------------------|
D|---9------4------5------2------0-0-0-0---|  
A|---9------4------5------2------0-0-0-0---|   <--(x2)
D|---9------4------5------2------0-0-0-0---|


Then:

Guitar 3:
e|----------------------------------------------------------------------|
B|----------------------------------------------------------------------|
G|----------------------------------------------------------------------|
D|---2-2-2-2-2-2-2-2-2-2-2-2-2-2-2-2--4-4-4-4-4-4-4-4-4-4-4-4-4-4-4-4---|
A|---2-2-2-2-2-2-2-2-2-2-2-2-2-2-2-2--4-4-4-4-4-4-4-4-4-4-4-4-4-4-4-4---|
D|---2-2-2-2-2-2-2-2-2-2-2-2-2-2-2-2--4-4-4-4-4-4-4-4-4-4-4-4-4-4-4-4---|

Guitar 1:
e|---14p12-14p12-14p12-14p12------------------------|
B|--------------------------------------------------|
G|----------------------------11p9-11p9-11p9-11p9---| <--(x2)
D|--------------------------------------------------|
A|--------------------------------------------------|
D|--------------------------------------------------|


Then:

Guitar 1:
e|----------------------------------|
B|----------------------------------|
G|---(12)------------(9)------------|
D|---( x)------------(x)------------|
A|---(10)------------(7)------------|
D|----------------------------------|

Guitar 2:
e|----------------------------------|
B|----------------------------------|
G|----------------------------------|
D|---5------------(2)---------------|
A|---5------------(2)---------------|
D|---5------------(2)---------------|



Then:

Guitar 1:
e|------------------------------------------------------------|
B|------------------------------------------------------------|
G|---(9)------(7)------(6)------(9)-----(11)------(9)---------|
D|---(x)------(x)------(x)------(x)-----(-x)------(x)---------|
A|---(7)------(5)------(4)------(7)-----(-9)------(7)---------|
D|------------------------------------------------------------|

Guitar 3:
e|-------------------------------------|
B|-------------------------------------|
G|-------------------------------------|
D|---------7-----------4-----------7---|
A|---5-5-5---5-5-5-5-5---5-5-5-5-5-----| <--(x3)
D|-------------------------------------|
PM   . . .   . . . . .   . . . . .


Then:

Guitar One:
e|------------------------|
B|------------------------|
G|---(6)------(7)---------|
D|---(x)------(x)---------|
A|---(4)------(5)---------|
D|------------------------|

Guitar 3:
e|-------------------------------------|
B|-------------------------------------|
G|-------------------------------------|
D|---------7-----------4---------------| Let ||4||| ring out.
A|---5-5-5---5-5-5-5-5-----------------|
D|-------------------------------------|
PM   . . .   . . . . .   


Then:

Guitar 1, 2
e|-------------|
B|-------------|
G|---7---------|
D|-------------|
A|-------------|
D|-------------|
NH   *


Now Repeat:

Pre-Chorus

Chorus

Outro:

Guitar 3:
e|----------------------------------------------------------------------|
B|----------------------------------------------------------------------|
G|----------------------------------------------------------------------|
D|---2-2-2-2-2-2-2-2-2-2-2-2-2-2-2-2--4-4-4-4-4-4-4-4-4-4-4-4-4-4-4-4---|
A|---2-2-2-2-2-2-2-2-2-2-2-2-2-2-2-2--4-4-4-4-4-4-4-4-4-4-4-4-4-4-4-4---|
D|---2-2-2-2-2-2-2-2-2-2-2-2-2-2-2-2--4-4-4-4-4-4-4-4-4-4-4-4-4-4-4-4---|

Guitar 1:
e|---14p12-14p12-14p12-14p12------------------------|
B|--------------------------------------------------|
G|----------------------------11p9-11p9-11p9-11p9---| <--(x2)
D|--------------------------------------------------|
A|--------------------------------------------------|
D|--------------------------------------------------|

Then:

Guitar 1:
e|--------------------------------------------------------------!----------|
B|---------------------------------------------G-------T------!------------|
G|---12------11------7-----------------------N-------U------!--------------|
D|----x-------x------0--------------T------I-------O-----------------------|
A|---10-------9------0------------E------R---------------------------------|
D|-------------------0----------L------------------------------------------|


Guitar Two:

e|--------------------------------------------------------------!----------|
B|---------------------------------------------G-------T------!------------|
G|-------------------------------------------N-------U------!--------------|
D|---5-------4-------0--------------T------I-------O-----------------------|
A|---5-------4-------0------------E------R---------------------------------|
D|---5-------4-------0----------L------------------------------------------|


----------------------------------------------------------------------------

Lyrics:

Today my past 
Has come alive to eat 
All of the guts that I use to just keep my feet 
Moving left and right 
As my legs shake like trees 
Oh how I curse the heavens for not taken me 

GOD DAMN 
This whole mess that's me 
I DON'T TRUST MYSELF 
I'm in way too deep 
And every night I erase the day 
With the strongest drinks they'll give to me 

And I awake 
Much to my dismay 
To find that I'm still staring at the same ceiling 
I just wish once 
I could get this right 
And have the angels from the south take me at night 

GOD DAMN 
This whole mess that's me 
I DON'T TRUST MYSELF 
I'm in way too deep 
And every night I erase the day 
With the strongest drinks they'll give to me 

And all I have is meaningless 
And all I found is nothingness 
In this self loathing sickness 
And all I have is meaningless 
And all I found is nothingness 
In this self loathing sickness 

GOD DAMN 
This whole mess that's me 
I DON'T TRUST MYSELF 
I'm in way too deep 
And every night I erase the day 
With the strongest drinks they'll give to me 

And all I have is meaningless 
And all I found is nothingness

----------------------------------------------------------------------------

Key

. = Palm Mute
* = Natural Harmonic
(#) = Ghost Note
/ or \ = Slide Up or Down
p = Pull Off
h = Hammer On

----------------------------------------------------------------------------

Please comment and rate.. Thanks!!

Добавлено: 20.05.2012
Другие материалы по этой песне:
  • Аккорды и текст

Страница создана 03.04.2012
http://primanota.ru/senses-fail/stretch-your-legs-to-coffin-length-chords.htm
Привет, Гость.
Предлагаем пройти революционный курс по гитаре.
Подарок от PrimaNota.Ru, забирай!