PrimaNota.ru - самый крупный в мире бесплатный архив песенных текстов, аккордов, табулатур и нот


Senses Fail - Wolves At The Door - таба, видео

Регистрация Запомнить меня
Войти через:  Facebook Google Twitter Vk Yandex Mail.ru

Senses Fail - Wolves At The Door - таба, видео

Печатать
Просмотров: 120
----------------------------------------------------------------------------
                     Wolves At The Door - Senses Fail
----------------------------------------------------------------------------
Senses Fail has got some great new songs this is one of them.
"Wolves At The Door" has got a great solo which is tabbed out here.
-Transcribed by my guitar teacher and put on this site by me, Simon Chowaniec.
                              -Please Rate-

----------------------------------------------------------------------------

                   Updated: 11/4/08 next update: DONE

Tuning: DADGBE

T- Tap
hb-Half Bend
fb-Full Bend
*- Palm Mute
..-Hold Bend

                           Written in D Minor

Solo - Lead Guitar

Left Speaker!

       Hold bend
     ................
e[---8fb-----t22p8---r----------|-------------------------------------------|
b[------------------------10----|---11p10------13p10-----11p10--------------|
g[---------------------------10-|---------1010-------1010------1010-12p10---|
d[------------------------------|-------------------------------------------|
a[------------------------------|-------------------------------------------|
d[------------------------------|-------------------------------------------|
                                          * *        * *        * *

                                                   Hold bend
                                                  ..........
e-----------13-17-|---------------------------------------------------------|
b--------13-------|--13----------------13fb-r-------------------------------|
g-----14----------|-----14---------------------0-12fb-t17p12r-p10h12--------|
d--15-------------|--------15-12---15---------------------------------------|
a-Sweeping!-------|---------------------------------------------------------|
d-Follow Picking Pattern----------------------------------------------------|
   D  D  D   D  U    U  U  U  D


Right Speaker!
                                                               !Harmonizing
                                                               Part starts
                                                               Here!
                                                                 Right
                                                                Speaker.

                                                  Guitar 1
e------------------------13-----13--12-------------------------------------|
b----------13---------------------------10-13fb-13-11-10-11-10-------------|
g-12/14-15-----15-14--14-----14--------------------------------12fb-12-10-9|
d--------------------------------------------------------------------------|
a--------------------------------------------------------------------------|
d--------------------------------------------------------------------------|

e-13~~~-|-10-12-13-|------|-10-12-13-10-12-13-12-10-|------|-10-12-13-----|
b-------|----------|-13-13|-------------------------|--13--|--------------|
g-------|----------|------|-------------------------|------|--------------|
d-------|----------|------|-------------------------|------|--------------|
a-------|----------|------|-------------------------|------|--------------|
d-------|----------|------|-------------------------|------|--------------|
          <--2x--->                                   <2x>  <----2x-------|


e---------15fb-15-13-13-12-15fb-15-17-18/|
b--13------------------------------------|  Guitar one 1 Done~!
g----------------------------------------|
d----------------------------------------|
a----------------------------------------|
d----------------------------------------|
  <-4x->

Guitar 2
Left Speaker!

e--------------------|--17~~-|--13-15-17-|-13-13-|-13-15-17-13-15-17-15-13-|
b--------------------|-------|-----------|-------|-------------------------|
g--15fb--15-14-12----|-------|-----------|-------|-------------------------|
d--------------------|-------|-----------|-------|-------------------------|
a--------------------|-------|-----------|-------|-------------------------|
d--------------------|-------|-----------|-------|-------------------------|
                                <--2x-->

e--13-15-17--|--------18fb--18-17-17-15-18fb-18-20-22/-----------------------|
b------------|--18-18------------------------------------|| Guitar 2 Done!~~-|
g------------|---------------------------------------------------------------|
d------------|---------------------------------------------------------------|
a------------|---------------------------------------------------------------|
d------------|---------------------------------------------------------------|
  <---2x---------------------------------------------------------------------|


Ok, so that was the harmonzing part in the solo.


Rhythem Guitar

Its really simple behind the solo here it is.


  |D5|  |Bb5|  |F5|  |C5|


Well that's the whole solo guys.
Hope you enjoy it.
-Rate please-

Check out my "Lungs Like Gallows" Tab! It's great just like this one. :) 
----------------------------------------------------------------------------
 /  slide up
| \  slide down
| h  hammer-on
| p  pull-off
| ~  vibrato
| +  harmonic
| x  Mute note
============================================================================
Добавлено: 27.07.2012
Другие материалы по этой песне:
  • Аккорды и текст

Страница создана 10.04.2012
http://primanota.ru/senses-fail/wolves-at-the-door-chords.htm
Привет, Гость.
Предлагаем пройти революционный курс по гитаре.
Подарок от PrimaNota.Ru, забирай!