PrimaNota.ru - самый крупный в мире бесплатный архив песенных текстов, аккордов, табулатур и нот


Senses Fail - Cinco De Mayo - таба, бас-таба, видео

Регистрация Запомнить меня
Войти через:  Facebook Google Twitter Vk Yandex Mail.ru

Senses Fail - Cinco De Mayo - таба, бас-таба, видео

Печатать
Просмотров: 92
Cinco De Mayo - Senses Fail
Still Searching (Deluxe Edition)
Drop D


I couldn't figure out how the real chorus goes but I got enough to where you can 
play along with it.

.=Palm Mute
h=Hammer On
fb=Full Bend
t=Tremolo Pick
/=Slide Down
~=Let It Ring Out



Intro 00:00-00:11
  (Guitar 1)
e|-------------------------------------|-------------------------------------|
B|-------------------------------------|-------------------------------------|
G|-------------------------------------|-------------------------------------|
D|--------8-8-----5-------8-8-----5----|---------8-8-----5-------8-8-----5---|
A|-------------------------------------|-------------------------------------|
D|----5-5-----5-5---5-5-5-----5-5------|---5-5-5-----5-5---5-5-5-----5-5-----| 

  (Guitar 1)
e|-------------------------------------|-------------------------------------|
B|-------------------------------------|-------------------------------------|
G|-----------------2---------------5---|-------------------------------------|
D|---------3-3-------------5-5---------|---------8-8-----5-----8---7-------5-|
A|-------------------------------------|-------------------------------8-----|
D|---1-1-1-----1-1---3-3-3-----3-3-----|---5-5-5-----5-5---5-5---5---5---5---|
 |                                                                      
 |(Guitar 2)                           
e|-------------------------------------|-------------------------------------|
B|-------------------------------------|-------------------------------------|
G|-------------------------------------|-------------------------------------|
D|---1~--------------3~----------------|---5~--------------------------------|
A|---1~--------------3~----------------|---5~--------------------------------|
D|---1~--------------3~----------------|---5~--------------------------------|


Verse 1 00:11-00:50
  (Guitar 1 & 2)
e|-------------------------------------|-------------------------------------|
B|-------------------------------------|-------------------------------------|
G|-------------------------------------|-------------------------------------|
D|--------8-8-----5-------8-8-----5----|---------8-8-----5-------8-8-----5---|
A|-------------------------------------|-------------------------------------|
D|----5-5-----5-5---5-5-5-----5-5------|---5-5-5-----5-5---5-5-5-----5-5-----| 

e|-------------------------------------|-------------------------------------|
B|-------------------------------------|-------------------------------------|
G|-----------------2---------------5---|-------------------------------------|
D|---------3-3-------------5-5---------|---------8-8-----5-----8---7-------5-|
A|-------------------------------------|-------------------------------8-----|
D|---1-1-1-----1-1---3-3-3-----3-3-----|---5-5-5-----5-5---5-5---5---5---5---|

e|-------------------------------------------|-----------|
B|-------------------------------------------|-----------|
G|-------------------------------------------|-----------|
D|---1---3-------8-8-------------------------|---1---3---|
A|---1---3---------------8-8-----8-8-----8---|---1---3---|
D|---1---3---5-5-----5-5-----7-7-----8-8-----|---1---3---|

  (Guitar 1)
e|-------------------------------------|-------------------------------------|
B|-------------------------------------|-------------------------------------|
G|-------7-7-----5-----7---5-----------|-------7-7-----5-----7---5-----------|
D|-----------------------------7---8---|-----------------------------7---8---|
A|-------------------------------------|-------------------------------------|
D|---5-5-----5-5---5-5---5---5---5-----|---5-5-----5-5---5-5---5---5---5-----|
 |   . .     . .   . .   .   .   .         . .     . .   . .   .   .   .   
 |                                                                       
 |(Guitar 2)                                                              
e|-------------------------------------|-------------------------------------|
B|-------------------------------------|-------------------------------------|
G|-------------------------------------|-------------------------------------|
D|-------8-8-----5-----8---7-------5---|-------8-8-----5-----8---7-------5---|
A|-----------------------------8-------|-----------------------------8-------|
D|---5-5-----5-5---5-5---5---5---5-----|---5-5-----5-5---5-5---5---5---5-----|
     . .     . .   . .   .   .   .         . .     . .   . .   .   .   .

  (Guitar 1)
e|-------------------------------------|---------------------------------------|
B|-------------------------------------|---------------------------------------|
G|---------------2-----------------5---|---------7-7-----5-----7---5-----------|
D|-------3-3---------------5-5---------|-------------------------------7---8---|
A|-------------------------------------|---------------------------------------|
D|---1-1-----1-1-----3-3-3-----3-3-----|---5-5-5-----5-5---5-5---5---5---5-----|
 |   . .     . .     . . .     . .         . . .     . .   . .   .   .   .
 |
 |(Guitar 2)
e|-------------------------------------|---------------------------------------|
B|-------------------------------------|---------------------------------------|
G|---------------2-----------------5---|---------------------------------------|
D|-------3-3---------------5-5---------|---------8-8-----5-----8---7-------5---|
A|-------------------------------------|-------------------------------8-------|
D|---1-1-----1-1-----3-3-3-----3-3-----|---5-5-5-----5-5---5-5---5---5---5-----|
     . .     . .     . . .     . .         . . .     . .   . .   .   .   .  

  (Guitar 1 & 2)
e|---------------------------------------------|-----------|
B|---------------------------------------------|-----------|
G|---------------------------------------------|-----------|
D|---1---3-------8-8---------------------------|---1---3---|
A|---1---3---------------8-8-----8-8-----8h10--|---1---3---|
D|---1---3---5-5-----5-5-----7-7-----8-8-------|---1---3---|


Chorus 00:50-01:15
  (Guitar 1)
e|-------------------|-------------------|      |------|
B|-------------------|-------------------|      |------|
G|-------------------|-------------------|      |------|
D|---5---0---1---3---|---5---0---1---3---|      |--5~--|
A|---5---0---1---3---|---5---0---1---3---|      |--5~--|
D|---5---0---1---3---|---5---0---1---3---|(x2)  |--5~--|


Verse 2 01:15-01:34
  (Guitar 1)
e|-------------------------------------|-------------------------------------|
B|-------------------------------------|-------------------------------------|
G|-------7-7-----5-----7---5-----------|-------7-7-----5-----7---5-----------|
D|-----------------------------7---8---|-----------------------------7---8---|
A|-------------------------------------|-------------------------------------|
D|---5-5-----5-5---5-5---5---5---5-----|---5-5-----5-5---5-5---5---5---5-----|
 |   . .     . .   . .   .   .   .         . .     . .   . .   .   .   .   
 |                                                                       
 |(Guitar 2)                                                              
e|-------------------------------------|-------------------------------------|
B|-------------------------------------|-------------------------------------|
G|-------------------------------------|-------------------------------------|
D|-------8-8-----5-----8---7-------5---|-------8-8-----5-----8---7-------5---|
A|-----------------------------8-------|-----------------------------8-------|
D|---5-5-----5-5---5-5---5---5---5-----|---5-5-----5-5---5-5---5---5---5-----|
     . .     . .   . .   .   .   .         . .     . .   . .   .   .   .

  (Guitar 1)
e|-------------------------------------|---------------------------------------|
B|-------------------------------------|---------------------------------------|
G|---------------2-----------------5---|---------7-7-----5-----7---5-----------|
D|-------3-3---------------5-5---------|-------------------------------7---8---|
A|-------------------------------------|---------------------------------------|
D|---1-1-----1-1-----3-3-3-----3-3-----|---5-5-5-----5-5---5-5---5---5---5-----|
 |   . .     . .     . . .     . .         . . .     . .   . .   .   .   .
 |
 |(Guitar 2)
e|-------------------------------------|---------------------------------------|
B|-------------------------------------|---------------------------------------|
G|---------------2-----------------5---|---------------------------------------|
D|-------3-3---------------5-5---------|---------8-8-----5-----8---7-------5---|
A|-------------------------------------|-------------------------------8-------|
D|---1-1-----1-1-----3-3-3-----3-3-----|---5-5-5-----5-5---5-5---5---5---5-----|
     . .     . .     . . .     . .         . . .     . .   . .   .   .   .  

  (Guitar 1)
e|-------------------------------------|---------------------------------------|
B|-------------------------------------|---------------------------------------|
G|---7-7-7-7-7-7-7-7-------------------|---7-7-7-7-7-7-7-7---------------------|
D|-------------------8-8-8-8-7-7-7-7---|-------------------8-8-8-8-7-7-7-7-----|
A|-------------------------------------|---------------------------------------|
D|-------------------------------------|---------------------------------------|
 |
 |(Guitar 2)
e|-------------------------------------|---------------------------------------|
B|-------------------------------------|---------------------------------------|
G|---3-3-3-3-3-3-3-3-------------------|---3-3-3-3-3-3-3-3---------------------|
D|-------------------5-5-5-5-3-3-3-3---|-------------------5-5-5-5-3-3-3-3-----|
A|-------------------------------------|---------------------------------------|
D|-------------------------------------|---------------------------------------|

  (Guitar 1 & 2)
e|----------------------|
B|----------------------|
G|----------------------|
D|---1-1-1-1-1-1-0-3----|
A|---1-1-1-1-1-1-0-3----|
D|---1-1-1-1-1-1-0-3----|


Chorus 01:35-02:04
e|-------------------|-------------------|      |-------------|       |---------------------|
B|-------------------|-------------------|      |-------------|       |---------------------|
G|-------------------|-------------------|      |-------------|       |---------------------|
D|---5---0---1---3---|---5---0---1---3---|      |---5-5-x-x---|       |---5-5-5-5-5-5-5-5---|
A|---5---0---1---3---|---5---0---1---3---|      |---5-5-x-x---|       |---5-5-5-5-5-5-5-5---|
D|---5---0---1---3---|---5---0---1---3---|(x2)  |---5-5-x-x---|(x6)   |---5-5-5-5-5-5-5-5---|



Solo 02:04-02:24
  (Guitar 1)
e|------------------------------------------------------------------|
B|---18fb-15-15-16-16/18-16-15----------15---------------15-16-15---|
G|-----------------------------17-15-17----17fb-15-15-17------------|
D|------------------------------------------------------------------|
A|------------------------------------------------------------------|
D|------------------------------------------------------------------|
 |                                                    t~~~~~~~~~~ 
 |
 |(Guitar 2)
e|------------------------------------------------------------------|
B|------------------------------------------------------------------|
G|------------------------------------------------------------------|
D|---1-------------3-----------------5----------------7-----8-------|
A|---1-------------3-----------------5----------------7-----8-------|
D|---1-------------3-----------------5----------------7-----8-------|


That's about all I got done on the solo,
You can figure out the rest on your own,
It's pretty easy.


Alternate Chorus 02:28-02:50
e|-----------------------------|
B|-----------------------------|
G|-----------------------------|
D|---8-8-8-8-8-8-7-7-7-7-7-7---|
A|---8-8-8-8-8-8-7-7-7-7-7-7---|
D|---8-8-8-8-8-8-7-7-7-7-7-7---|
         . . . .     . . . . 

e|-------------------|-------------------|-------------------|
B|-------------------|-------------------|-------------------|
G|-------------------|-------------------|-------------------|
D|---5---0---1---3---|---5---0---1---3---|---5---0---1---3---|
A|---5---0---1---3---|---5---0---1---3---|---5---0---1---3---|
D|---5---0---1---3---|---5---0---1---3---|---5---0---1---3---|

e|-------------|     |---------|
B|-------------|     |---------|
G|-------------|     |---------|
D|---5-5-x-x---|     |---5-5---|
A|---5-5-x-x---|     |---5-5---|
D|---5-5-x-x---|(x4) |---5-5---|


Ending? 02:50-02:56 (Don't know if this is right)
  (Guitar 1)
e|-----------|
B|---10-11---|
G|-----------|
D|-----------|
A|-----------|
D|-----------|(x4)




Добавлено: 12.06.2012
Другие материалы по этой песне:

Страница создана 09.03.2012
http://primanota.ru/senses-fail/cinco-de-mayo-chords.htm
Привет, Гость.
Предлагаем пройти революционный курс по гитаре.
Подарок от PrimaNota.Ru, забирай!