PrimaNota.ru - самый крупный в мире бесплатный архив песенных текстов, аккордов, табулатур и нот


Senses Fail - Dreaming A Reality - аккорды и текст, таба, видео

Регистрация Запомнить меня
Войти через:  Facebook Google Twitter Vk Yandex Mail.ru

Senses Fail - Dreaming A Reality - аккорды и текст, таба, видео

Печатать
Просмотров: 137
Dreaming A Reality
Senses Fail
Tabbed by: Adam
I wanna let all you guys know that I just wrote down the tabs and you guys
Just figure out the strumming on your own. It's simple. 
Drop your D tuning...
e|--------------------------------------------------------------------|
B|--------------------------------------------------------------------|
G|--------------------------------------------------------------------|
D|------7-----6-------------------------7-----6-------------------6---|
A|----4-----4-----4-7-----7-----7-----4-----4-----4-7-----7-----7-----|
E|--4-----4-----4-----4-4---4-4---4-4-----4-----4-----4-4---4-4-----4-|
e|--------------------------------------------------------------------|
B|--------------------------------------------------------------------|
G|--------------------------------------------------------------------|
D|------7-----6-------------------------7-----6-----------------------|
A|----0-----0-----0-7----7-----7------0-----0-----0-7-----7-----7-----|
E|--0-----0-----0----0-0---0-0---0--0-----0-----0-----0-0---0-0---0---| after you play
                                                                        this go to the
                                                                        top & play again
Guitar 2 Intro
e|--------------------------------------|
B|--------------------------------------|
G|--------------------------------------|
D|---4-4------4-4------0-0------0-0-----|
A|---4-4------4-4------0-0------0-0-----|
E|---4-4------4-4------0-0------0-0-----|
  PM....     PM....   PM....  PM....
 Play this 2nd intro. Find out when to play it. It's simple...
Guitar 2
e|-------------------------------------|
B|-------------------------------------|
G|-------------------------------------|
D|--4---------------------0------------|
A|--4---------------------0------------|
E|--4---------------------0------------|
  
  Folks, with guitar one, I just turn my distortion on and play the intro again.

Guitar 1 Verse   AWESOME PART  Play twice
e|--------------------------------------|
B|--------------------------------------|
G|--------------------------------------|
D|--7--6-----7--6-----7--6--2--7--6--2--|
A|--4--4--7--4--4--7--0--0--0--0--0--0--|
E|--4--4--4--4--4--4--0--0--0--0--0--0--|
Guitar 2 Verse
e|-----------------------|
B|-----------------------|< 
G|-----------------------|    Play Twice
D|--4-----------------0--|
Добавлено: 09.03.2012
Другие материалы по этой песне:

Страница создана 25.02.2012
http://primanota.ru/senses-fail/dreaming-a-reality-chords.htm
Привет, Гость.
Предлагаем пройти революционный курс по гитаре.
Подарок от PrimaNota.Ru, забирай!