PrimaNota.ru - самый крупный в мире бесплатный архив песенных текстов, аккордов, табулатур и нот


Sea Wolf - Black Leaf Falls - текст песни, таба, видео

Регистрация Запомнить меня
Войти через:  Facebook Google Twitter Vk Yandex Mail.ru

Sea Wolf - Black Leaf Falls - текст песни, таба, видео

Печатать
Просмотров: 685
Уроки эстрадного вокала в Санкт-Петербурге
-------------------------------------------------------------------------------
                             Black Leaf Falls - Sea Wolf
-------------------------------------------------------------------------------
Tabbed by:Joey Fortier
Email: joey4ta@aol.com

Tuning:Standard


e|--------------------------------------------------------------------------|
B|---1-----------1-------0---1---0------1-----------1-------0-----1-----0---|
G|---2---2---2---0---0---1---0---1------2---2---2---0---0---1-----0-----1---|
D|---2---2---2---2---0---2---2---2------2---2---2---2---0---2---2-----2-----|
A|-0-----0---0-3-----2-2---3---2------0-----0---0-3-----2-2---3-----2-------|
E|-----0---1-------3----------------------0---1-------3---------------------|

It weighs too much this time
My hands are broken
She'll disappear again
Before we've spoken
The night we took that year
In Black Leaf Falls
All of the trees were bare
Next to the dance hall

I saw you outside
The bathroom stalls
You were just standing there
Out in the hall
You leaned your hip against
Against the wall
I'd love you anywhere
But Black Leaf Falls

Her perfume was so
I smell it still
I put her leaf upon
The window sill
I found it there today
Its color gone
It's in the water now
It's been too too long

I saw you outside
The bathroom stall
You were just standing there
Out in the hall
You leaned your hip against
Against the wall
I'd love you anywhere
But Black Leaf Falls

I'll fall asleep tonight
See where they take me
Fly with the maple seeds
See if she wakes me

I saw you outside
The bathroom stalls
You were just standing there
Out in the hall
You turned your eyes to me
I felt it all
I'd love you anywhere
But Black Leaf Falls
Oh, Black Leaf Falls

| /  slide up
| \  slide down
| h  hammer-on
| p  pull-off
| ~  vibrato
| +  harmonic
| x  Mute note
===============================================================================
Добавлено: 05.06.2012
Другие материалы по этой песне:
  • Аккорды и текст

Страница создана 26.03.2012
http://primanota.ru/sea-wolf/black-leaf-falls-chords.htm
Привет, Гость.
Предлагаем пройти революционный курс по гитаре.
Подарок от PrimaNota.Ru, забирай!