PrimaNota.ru - самый крупный в мире бесплатный архив песенных текстов, аккордов, табулатур и нот


Sea Wolf - Leaves In The River - аккорды и текст, таба, видео

Регистрация Запомнить меня
Войти через:  Facebook Google Twitter Vk Yandex Mail.ru

Sea Wolf - Leaves In The River - аккорды и текст, таба, видео

Печатать
Просмотров: 196
Leaves In The River
Sea Wolf
-------------------------------------------------------------------------------
                              Sea Wolf - Leaves In The River 
-------------------------------------------------------------------------------
Album : Leaves In The River (2009)
Tempo : 80
E-mail: gwendal.mollo@orange.fr
Tabbed by: newg

capo on 4 (He don't use a capo, but it's easier to play)

Verses : 
   A              Bm             E             A
e|--------------|--------------|--------------|--------------|
B|-2--2--2--2---|-3--3--3--3---|-0--0--0--0---|-2--2--2--2---|
G|---2--2--2--2-|---2--2--2--2-|---1--1--1--1-|---2--2--2--2-|
D|--------------|--------------|--------------|--------------|
A|-0--0--0--0---|-2--2--2--2---|--------------|-0--0--0--0---|
E|--------------|--------------|-0--0--0--0---|--------------|

A

  A
I met a girl on Halloween
Bm
she was drunk and I was lost
    E
and it was dark and cold out
        A
when we left

As we walked the rain started
the leaves softened with every step
and all around us people slept
alone with their dreams

A Bm E A

The wind came down from up the plains
and blew the leaves all through the streets
I wondered how far leaves
could really fly

Would they rest in suburb yards?
Or make it to the city?
Or would they end up in the river
just to float away?

She pointed to a small brick house
and said it was were she grew up
She asked if we could stop for a while

Her hair was still just getting wet
the water running down her neck
collecting in the handprint in cement
beneath her feet

A Bm E A x2

Apparently there'd been a death
Someone close had nothing left
because she hadn't loved him
in the end

I saw her blush when I asked
if she always talked like that
She said it only happened
when she drank

And later on I felt her hand
slipping into my cold fist
She promised me a kiss
as soon as we got home

Her costume had begun to tear
She ran ahead and turned to me
her laughter echoed through
the empty streets

A Bm E A x2
Добавлено: 21.07.2013
Другие материалы по этой песне:
  • Аккорды и текст

Страница создана 25.03.2012
http://primanota.ru/sea-wolf/leaves-in-the-river-chords.htm
Привет, Гость.
Предлагаем пройти революционный курс по гитаре.
Подарок от PrimaNota.Ru, забирай!