PrimaNota.ru - самый крупный в мире бесплатный архив песенных текстов, аккордов, табулатур и нот


Sea Wolf - Dew In The Grass - аккорды и текст, видео

Регистрация Запомнить меня
Войти через:  Facebook Google Twitter Vk Yandex Mail.ru

Sea Wolf - Dew In The Grass - аккорды и текст, видео

Печатать
Просмотров: 168
Dew In The Grass
Sea Wolf
This is only my second tab so it may not be completely right
but it sounds good as far as I can tell. Listen to the song
for the timing and strumming patterns.

Tuning is standard
Capo on 2 and the chords are relative to the capo.

Source: http://www.youtube.com/watch?v=8bBRVgRorOo 



            Intro & Verse

    Em       Em        G        G (up two frets) 
|--0-0-0----0-0-0----3-3-3----5-5-5--|
|--0-0-0----0-0-0----0-0-0----0-0-0--|
|--0-0-0----0-0-0----0-0-0----0-0-0--|
|--2-2-2----2-2-2----0-0-0----0-0-0--|
|--2-2-2----2-2-2----2-2-2----X-X-X--|
|--0-0-0----0-0-0----3-3-3----5-5-5--|    
        

            Chorus

   C    Am    Em     G
|--0-----0-----0-----3--|
|--1-----1-----0-----0--|
|--0-----2-----0-----0--|    
|--2-----2-----2-----0--|        x2
|--3-----0-----2-----2--|
|--0-----0-----0-----3--|    


     C      Am      Em       G
|--0-0-0---0-0-0---0-0-0---3-3-3--|
|--1-1-1---1-1-1---0-0-0---0-0-0--|
|--0-0-0---2-2-2---0-0-0---0-0-0--|    
|--2-2-2---2-2-2---2-2-2---0-0-0--|        x1
|--3-3-0---0-0-0---2-2-2---2-2-2--|
|--0-0-0---0-0-0---0-0-0---3-3-3--|    


     C      Am      Em      G     G (back one fret)
|--0-0-0---0-0-0---0-0-0---3-3---2-2--|
|--1-1-1---1-1-1---0-0-0---0-0---0-0--|
|--0-0-0---2-2-2---0-0-0---0-0---0-0--|    
|--2-2-2---2-2-2---2-2-2---0-0---0-0--|        x1
|--3-3-0---0-0-0---2-2-2---2-2---X-X--|
|--0-0-0---0-0-0---0-0-0---3-3---2-2--|


Repeat Verse


Bridge    
          
   Em  Em   Em   Em 
|--0----0----0----0--|
|--0----0----0----0--|
|--0----0----0----0--|
|--2----2----2----2--|                
|--2----2----2----2--|
|--0----0----0----0--|      


    Am       C       Em      Em
|--0-0-0---0-0-0---0-0-0---0-0-0--|
|--1-1-1---1-1-1---0-0-0---0-0-0--|
|--2-2-2---0-0-0---0-0-0—--0-0-0--|    
|--2-2-2---2-2-2---2-2-2---2-2-2--|
|--0-0-0---2-2-2---2-2-2---2-2-2--|
|--0-0-0---0-0-0---0-0-0---0-0-0--|    


Chorus  
End on Em
Добавлено: 08.07.2012
Другие материалы по этой песне:
  • Аккорды и текст

Страница создана 08.07.2012
http://primanota.ru/sea-wolf/dew-in-the-grass-chords.htm
Привет, Гость.
Предлагаем пройти революционный курс по гитаре.
Подарок от PrimaNota.Ru, забирай!