PrimaNota.ru - самый крупный в мире бесплатный архив песенных текстов, аккордов, табулатур и нот


Scandal - Satisfaction - таба, видео

Регистрация Запомнить меня
Войти через:  Facebook Google Twitter Vk Yandex Mail.ru

Scandal - Satisfaction - таба, видео

Печатать
Просмотров: 38
Intro:
e|--x---x---x---------|
B|--x---x---x---------|
G|--x---x---x---------|
D|--8---6---x---------|
A|--6---3---6---------|
E|--x---x---4---------|(4x)

e|--11--11--11--------------|
B|--x---x---x---------------|
G|--8---8---8--11-10-8------|
D|--x---x---x---------------|
A|--x---x---x---------------|
E|--x---x---x---------------|

e|--11--11--11--------------|
B|--x---x---x---------------|
G|--8---8---8--8-11-8-11----|
D|--x---x---x---------------|
A|--x---x---x---------------|
E|--x---x---x---------------|

e|--11--11--11--------------|
B|--x---x---x---------------|
G|--8---8---8--11-10-8------|
D|--x---x---x---------------|
A|--x---x---x---------------|
E|--x---x---x---------------|

e|--11--11--11--------------|
B|--x---x---x---------------|
G|--8---8---8--8-11-8-11----|
D|--x---x---x---------------|
A|--x---x---x---------------|
E|--x---x---x---------------|

Verse:

e|--x---x---x---x--x------|
B|--x---x---x---x--x------|
G|--x---x---x---x--x------|
D|--8---6---6---x--x------|
A|--6---4---4---x--x------|
E|--x---x---x---x--x------|

e|--11--11--11----------------|
B|--x---x---x-----------------|
G|--8---8---8--11-10-8--------|
D|--x---x---x-----------------|
A|--x---x---x-----------------|
E|--x---x---x-----------------|


e|--x---x-x--x---x---x--x-x-x--|
B|--x---x-x--x---x---x--x-x-x--|
G|--x---6-6--x---x---x--6-6-x--|
D|--8---4-4--6---x---8--4-4-6--|
A|--6---x-x--4---6---6--x-x-4--|
E|--x---x-x--x---4---x--x-x-x--|

Pre-chorus
e|--x---x---x---x--x--x-x-x--|
B|-11---9---7---7--6--7-6-7--|
G|-11---10--8---7--6--6-6-6--|
D|-11---11--9---9--8--x-x-x--|
A|--x---x---x---x--x--x-x-x--|
E|--x---x---x---x--x--x-x-x--|

B5   C#5
x     x
x     x
x     x
4     6
2     4
x     x


Chorus


e|-x--x---x---x--x----|
B|-x--x---x---x--x----|
G|-9--9--10--12-10----|
D|-x--x---x---x--x----|
A|-7--7---8--10--8----|
E|-x--x---x---x--x----|

e|---x--x----|
B|---x--x----|
G|--12-10----|
D|---x--x----|
A|--10--8----|
E|---x--x----|

e|----------------------------------------------------|
B|------------------------------------------------6---|
G|-11-11-9-9-10-------\11-9-8-9-8-----------5-7-8-----|
D|----------------9\11------------11-9---8------------|
A|----------------------------------------------------|
E|----------------------------------------------------|


e|-x--x---x---x--x----|
B|-x--x---x---x--x----|
G|-9--9--10--12-10----|
D|-x--x---x---x--x----|
A|-7--7---8--10--8----|
E|-x--x---x---x--x----|

e|---x--x----|
B|---x--x----|
G|--12-10----|
D|---x--x----|
A|--10--8----|
E|---x--x----|

e|---------------------------------------------|
B|-9-9-7-9-7-12-7-9-7---9-9-7-9-7-12-7-9-7-----|
G|---------------------------------------------|
D|---------------------------------------------|
A|---------------------------------------------|
E|---------------------------------------------|

e|---x------|
B|---x------|
G|---x------|
D|---7------|
A|---5------|
E|---x------|

e|----x----|
B|----x----|
G|----x----|
D|----x----|
A|----7----|
E|----5----|

Instrumental:

e|--x---x---x---------|
B|--x---x---x---------|
G|--x---x---x---------|
D|--8---6---x---------|
A|--6---3---6---------|
E|--x---x---4---------|(4x)

Verse:

e|----x----|
B|----x----|
G|----x----|
D|----6----|
A|----4----|
E|----x----|(2x)

e|--11--11--11-------------|
B|--x---x---x--------------|
G|--8---8---8--11-10-------|
D|--x---x---x--------------|
A|--x---x---x--------------|
E|--x---x---x--------------|

Pre-chorus
e|--x---x---x---x--x--x-x-x--|
B|-11---9---7---7--6--7-6-7--|
G|-11---10--8---7--6--6-6-6--|
D|-11---11--9---9--8--x-x-x--|
A|--x---x---x---x--x--x-x-x--|
E|--x---x---x---x--x--x-x-x--|

B5   C#5
x     x
x     x
x     x
4     6
2     4
x     x

Solo:

e|-----------------|
B|-----------------|
G|-----------------|
D|-----(7)---(7)---|
A|--\6----\6-------|
E|-----------------|{slide up and down,() means bend}

e|--x---x---x--x--x--x\x----x----x---x--x---|
B|--12--10--9-10--x--x\x----x----x---x--x---|
G|--x---x---x-x--10-10\12---9---11--12--11--|
D|--9---7---6-7---x--x\x----x----x---x--x---|
A|--x---x---x-x---8--8\10---7----9--10--9---|
E|--x---x---x-x---x--x\x----x----x--x---x---|

Not playing

When Tomomi says 'Itsumo'(I think it's this)

e|----------------------------------------------------|
B|------------------------------------------------6---|
G|-11-11-9-9-10-------\11-9-8-9-8-----------5-7-8-----|
D|----------------9\11------------11-9---8------------|
A|----------------------------------------------------|
E|----------------------------------------------------|


e|-x--x---x---x--x----|
B|-x--x---x---x--x----|
G|-9--9--10--12-10----|
D|-x--x---x---x--x----|
A|-7--7---8--10--8----|
E|-x--x---x---x--x----|

e|---x--x----|
B|---x--x----|
G|--12-10----|
D|---x--x----|
A|--10--8----|
E|---x--x----|
E|---x--x----|


e|---------------------------------------------|
B|-9-9-7-9-7-12-7-9-7---9-9-7-9-7-12-7-9-7-----|
G|---------------------------------------------|
D|---------------------------------------------|
A|---------------------------------------------|
E|---------------------------------------------|

e|---x------|
B|---x------|
G|---x------|
D|---7------|
A|---5------|
E|---x------|

e|----x----|
B|----x----|
G|----x----|
D|----x----|
A|----7----|
E|----5----|

e|--11--11--11--------------|
B|--x---x---x---------------|
G|--8---8---8--11-10-8------|
D|--x---x---x---------------|
A|--x---x---x---------------|
E|--x---x---x---------------|

e|--11--11--11--------------|
B|--x---x---x---------------|
G|--8---8---8--8-11-8-11----|
D|--x---x---x---------------|
A|--x---x---x---------------|
E|--x---x---x---------------|

e|--11--11--11--------------|
B|--x---x---x---------------|
G|--8---8---8--11-10-8------|
D|--x---x---x---------------|
A|--x---x---x---------------|
E|--x---x---x---------------|

e|--11--11--11--------------|
B|--x---x---x---------------|
G|--8---8---8--8-11-8-11----|
D|--x---x---x---------------|
A|--x---x---x---------------|
E|--x---x---x---------------|

e|--x---x---x---------|
B|--x---x---x---------|
G|--x---x---x---------|
D|--8---6---x---------|
A|--6---3---6---------|
E|--x---x---4---------|
Добавлено: 13.12.2015
Другие материалы по этой песне:
  • Аккорды и текст

Страница создана 13.12.2015
http://primanota.ru/scandal/satisfaction-chords.htm
Привет, Гость.
Предлагаем пройти революционный курс по гитаре.
Подарок от PrimaNota.Ru, забирай!