PrimaNota.ru - самый крупный в мире бесплатный архив песенных текстов, аккордов, табулатур и нот


Scandal - Stamp - таба, видео

Регистрация Запомнить меня
Войти через:  Facebook Google Twitter Vk Yandex Mail.ru

Scandal - Stamp - таба, видео

Печатать
Просмотров: 79
Mami's guitar

Intro chords:
B5 D#5 E5

INTRO

e|--x---x---x---------|
B|--x---x---x---------|
G|--x---x--(6)--------|
D|--x---x---x---------|
A|--9---9---x---------|
E|--7---7---x---------|[The() means bend

e|--x---x---x---------|
B|--x---x---x---------|
G|--x---x--(7)--------|
D|--8---8---x---------|
A|--6---6---x---------|
E|--x---x---x---------|

e|--x---x---x---x------|
B|--x---x---x---x------|
G|--x---x--(9)-(9)-----|
D|--9---9---x---x------|
A|--7---7---x---x------|
E|--x---x---x---x------|

e|--x---x---x---------|
B|--x---x---x---------|
G|--x---x--(6)--------|
D|--x---x---x---------|
A|--9---9---x---------|
E|--7---7---x---------|

e|--x---x---x---------|
B|--x---x---x---------|
G|--x---x--(7)--------|
D|--8---8---x---------|
A|--6---6---x---------|
E|--x---x---x---------|

e|--x---x---x--x---x--x--|
B|--x---x---x--x---x--x--|
G|--x---x---x--x---x--x--|
D|--9---8---6--4---x--x--|
A|--7---6---4--2---5--7--|
E|--x---x---x--x---3--5--|


VERSE:

e|--x-x----x-x----x-x----x-x-|
B|--x-x----x-x----x-x----x-x-|
G|--x-x----x-x----x-x----x-x-|
D|--4-4----8-8----9-9----4-4-|
A|--2-2----6-6----7-7----2-2-|
E|--x-x----x-x----x-x----x-x-|(3x)

e|--x-x----x-x--|
B|--x-x----x-x--|
G|--x-x----x-x--|
D|--4-4----8-8--|
A|--2-2----6-6--|
E|--x-x----x-x--|

e|--x---x---x--x---x--x--|
B|--x---x---x--x---x--x--|
G|--x---x---x--x---x--x--|
D|--9---8---6--4---x--x--|
A|--7---6---4--2---5--7--|
E|--x---x---x--x---3--5--|

The O-OH, YEAH YEAH part:

e|--x---x---x---------|
B|--x---x---x---------|
G|--x---x--(6)--------|
D|--x---x---x---------|
A|--9---9---x---------|
E|--7---7---x---------|[The() means bend

e|--x---x---x---------|
B|--x---x---x---------|
G|--x---x--(7)--------|
D|--8---8---x---------|
A|--6---6---x---------|
E|--x---x---x---------|

e|--x---x---x---x------|
B|--x---x---x---x------|
G|--x---x--(9)-(9)-----|
D|--9---9---x---x------|
A|--7---7---x---x------|
E|--x---x---x---x------|

e|--x---x---x---------|
B|--x---x---x---------|
G|--x---x--(6)--------|
D|--x---x---x---------|
A|--9---9---x---------|
E|--7---7---x---------|

e|--x---x---x---------|
B|--x---x---x---------|
G|--x---x--(7)--------|
D|--8---8---x---------|
A|--6---6---x---------|
E|--x---x---x---------|

e|--x---x---x--x---x--x--|
B|--x---x---x--x---x--x--|
G|--x---x---x--x---x--x--|
D|--9---8---6--4---x--x--|
A|--7---6---4--2---5--7--|
E|--x---x---x--x---3--5--|

Repeats this verse part twice


PRE-CHORUS

e|--x-|
B|--x-|
G|--x-|
D|--9-|
A|--7-|
E|--x-| 8 times

e|--x-|
B|--x-|
G|--x-|
D|--x-|
A|--9-|
E|--7-| 4 times

e|--x-|
B|--x-|
G|--x-|
D|--9-|
A|--7-|
E|--x-| 4 times

e|--x-x-x|
B|--x-x-x|
G|--x-x-x|
D|--x-x-x|
A|--7-7-9|
E|--5-5-7|

CHORUS:

e|-------------------------------------------------------------------14--------------------------|
B|-12-12-------12-12---------12-14-12-(14)-12-14--------12-14-12-(14)--(14)--------12-12-12-12---|
G|------11H13--------11h13-----------------------11h13---------------------11h13-----------------|
D|-----------------------------------------------------------------------------------------------|
A|-----------------------------------------------------------------------------------------------|
E|-----------------------------------------------------------------------------------------------|

[The () means bend and the h means that you hammer on( i think that it's that :p )

e|--x-x|
B|--x-x|
G|--x-x|
D|--x-x|
A|--5-7|
E|--3-5|


e|-------------------------------------------------------------------14--------------------------|
B|-12-12-------12-12---------12-14-12-(14)-12-14--------12-14-12-(14)--(14)--------12-12-12-12---|
G|------11H13--------11h13-----------------------11h13---------------------11h13-----------------|
D|-----------------------------------------------------------------------------------------------|
A|-----------------------------------------------------------------------------------------------|
E|-----------------------------------------------------------------------------------------------|


BRIDGE:

e|------------------------------------------------------|
B|------------------------------------------------------|
G|------------------------------------------------------|
D|------4-4--1-2-1--------4-4--6-4-2-4-----4-4-1-2-1----|
A|--2-2-----------2---2-2--------------2-2-----------2--|
E|------------------4----------------------------------4|

e|--x---x---x--x---x--x--|
B|--x---x---x--x---x--x--|
G|--x---x---x--x---x--x--|
D|--9---8---6--4---x--x--|
A|--7---6---4--2---5--7--|
E|--x---x---x--x---3--5--|


SOLO:


e|----------19/18/14/16-14------------------------15-------15----------------|
B|------16-----------------17-16-16h17-19---14h16----14h16------17-16/19-12--|
G|---16----------------------------------------------------------------------|
D|---------------------------------------------------------------------------|
A|---------------------------------------------------------------------------|
E|---------------------------------------------------------------------------|
(The / means slide, the h means hammer off.)


PRE-CHORUS

CHORUS


OUTRO:
Keep repeating the intro.

I hope it was helpful!!!!! <3
Добавлено: 08.06.2016
Другие материалы по этой песне:
  • Аккорды и текст

Страница создана 08.06.2016
http://primanota.ru/scandal/stamp-chords.htm
Привет, Гость.
Предлагаем пройти революционный курс по гитаре.
Подарок от PrimaNota.Ru, забирай!