PrimaNota.ru - самый крупный в мире бесплатный архив песенных текстов, аккордов, табулатур и нот


Scandal - Everybody Say Yeah - бас-таба, видео

Регистрация Запомнить меня
Войти через:  Facebook Google Twitter Vk Yandex Mail.ru

Scandal - Everybody Say Yeah - бас-таба, видео

Печатать
Просмотров: 74
Уроки эстрадного вокала в Санкт-Петербурге
String: 4
Turning: E A D G (Standard)

0:07
G|------------------------------8---8---8---8---7---7---7---7---6---6---6---6---|
D|-----------3---3---3---3------------------------------------------------------|
A|--------------------------3/6---6---6---6---5---5---5---5---4---4---4---4-----|
E|--1/7\1--1---1---1---1--------------------------------------------------------|

G|----------------------8---8---8---8---7---7---7---7---6---6--------|
D|----3---3---3---3--------------------------------------------------|
A|------------------3/6---6---6---6---5---5---5---5---4---4----4-4---|
E|--1---1---1---1----------------------------------------------------|

G|--------------------------------------------------------------------|
D|----3---3---3---3---6---6---6---6---8---8---8---8---3---3---3---3---|
A|--------------------------------------------------------------------|
E|--1---1---1---1---4---4---4---4---6---6---6---6---1---1---1---1-----| Play twice 2x

0:37
G|------------------------------------------------------------------------------------|
D|------------------------------------------------------------------------------------|
A|---------------------11-8-11-11-8-6-8-8-6-11-11-8---------------3-(8x)-3--3--3--3---|
E|--4-(8x)-6-(8x)-6/10------------------------------4-(8x)-6-(8x)---------------------|

G|------------------------------------7---7---7---7---6---6---8---8---|
D|----3---3---3---3---6---6---6---6-----------------------------------|
A|----------------------------------5---5---5---5---4---4---6---6-----|
E|--1---1---1---1---4---4---4---4-------------------------------------| Play twice 2x

G|----------------------------------------|
D|----------------------------------------|
A|----------------------------------------|
E|--1-1-4-4-4/6-4-6-1---1-1-4-4-4/6-4-6---|

Stop

1:23
G|--------------------------------|
D|--------------------------------|
A|--6~-8-8---8--------------------|
E|-------------4-4---4~-6-6---6---|

Stop

1:31
G|------------------------------------------------------------------------------15----------------------------|
D|---------------------------------------------------------------------------------15-------------------------|
A|----------------8-8-6-8--8-8-6---8-8-6-8--8-8-6------------------5/12\5--5/15-------15~-~\3----3--3--3--3---|
E|--4-(8x)-6-(8x)----------------4----------------4--4-(8x)-6-(8x)--------------------------------------------|

Stop

1:47
G|-------------------------------------------7---7---7---7---6---6---8---8---|
D|-----------3---3---3---3---6---6---6---6-----------------------------------|
A|-----------------------------------------5---5---5---5---4---4---6---6-----|
E|--1/7\1--1---1---1---1---4---4---4---4-------------------------------------|

G|------------------------------------7---7---7---7---6---6---8---8---|
D|----3---3---3---3---6---6---6---6-----------------------------------|
A|----------------------------------5---5---5---5---4---4---6---6-----|
E|--1---1---1---1---4---4---4---4-------------------------------------|

2:03 (Guitar solo)
G|----------------------------------------------------6---6---8---8---|
D|----3---3---3---3---6---6---6---6---8---8---8---8-------------------|
A|--------------------------------------------------4---4---6---6-----|
E|--1---1---1---1---4---4---4---4---6---6---6---6---------------------| Play twice 2x

2:18
G|------------------------------------------------------------------|
D|------------------------------------------------------------------|
A|--4-(4x)-3-(4x)-1-(8x)-3-4-(4x)-3-(4x)-1-(8x)-3-(8x)-3--3--3--3---|
E|------------------------------------------------------------------|

G|---------------------------------------------------------8--------------------|
D|----------------------------------------------------8h10---1-(4x)-------------|
A|------------------------------------------------------------------1-3---------|
E|--1---1/6-6---6\1-1---1/6-6---6\1-1---1/6-6---6/1-1-------------------1/7\1---|

G|------------------------------------7---7---7---7---6---6---8---8---|
D|----3---3---3---3---6---6---6---6-----------------------------------|
A|----------------------------------5---5---5---5---4---4---6---6-----|
E|--1---1---1---1---4---4---4---4-------------------------------------| Play twice 2x

G|------------------------------------------|
D|------------------------------------------|
A|------------------------------------------|
E|--1-1-4-4-4/6-4-6-1---1-1-4-4-4/6-4-6-1---| Play twice 2x

3:22 (Last part)
G|----------------------8---8---8---8---7---7---7---7---6---6---|
D|----3---3---3---3---------------------------------------------|
A|------------------3/6---6---6---6---5---5---5---5---4---4-----|
E|--1---1---1---1-----------------------------------------------|

G|----------------------8---8---8---8---7---7---7---7---6---6--------------------------|
D|----3---3---3---3--------------------------------------------------------------------|
A|------------------3/6---6---6---6---5---5---5---5---4---4----------------------------|
E|--1---1---1---1---------------------------------------------1--1--1--1--1--1--1--1---|

SCANDAL - EVERYBODY SAY YEAH! - TEMPTATION BOX - 2010

Добавлено: 08.06.2016
Вам также может быть интересно:
Другие материалы по этой песне:
  • Аккорды и текст

Страница создана 08.06.2016
http://primanota.ru/scandal/everybody-say-yeah-chords.htm
Привет, Гость.
Предлагаем пройти революционный курс по гитаре.
Подарок от PrimaNota.Ru, забирай!