PrimaNota.ru - самый крупный в мире бесплатный архив песенных текстов, аккордов, табулатур и нот


Saint Asonia - Leaving Minnesota - таба, видео

Регистрация Запомнить меня
Войти через:  Facebook Google Twitter Vk Yandex Mail.ru

Saint Asonia - Leaving Minnesota - таба, видео

Печатать
Просмотров: 381
Уроки эстрадного вокала в Санкт-Петербурге
D#|--------------------------------------------8---|
A#|----8-10-10-10-10-10b11r10----8-10-10-10-10---8~|
F#|-10------------------------10-------------------|
C#|------------------------------------------------|
G#|------------------------------------------------|
C#|------------------------------------------------|

D#|--------------------------------------------8---|
A#|----8-10-10-10-10-10b11r10----8-10-10-10-10---8~|
F#|-10------------------------10-------------------|
C#|------------------------------------------------|
G#|------------------------------------------------|
C#|------------------------------------------------|

D#|---------8----10----12----13----12b13r12----------------------|
A#|----8-10---10----10----10----10----------13h15p13-------------|
F#|-10-----------------------------------------------14-12-------|
C#|--------------------------------------------------------15-12-|
G#|--------------------------------------------------------------|
C#|--------------------------------------------------------------|

D#|----------------------------------------------------------|
A#|----------------------------------13-10----15----17b18r17-|
F#|-------10-10-------10----12-10----------10----14----------|
C#|-10h12-------10-12----12-------12-------------------------|
G#|----------------------------------------------------------|
C#|----------------------------------------------------------|

D#|-16-14-12----16-14-12----17-15-13----17-15-13----------------------------|
A#|----------14----------14----------15----------15-17-15-13-------------10-|
F#|----------------------------------------------------------------10-12----|
C#|----------------------------------------------------------10-12----------|
G#|-------------------------------------------------------------------------|
C#|-------------------------------------------------------------------------|
Добавлено: 02.05.2016
Другие материалы по этой песне:
  • Аккорды и текст

Страница создана 02.05.2016
http://primanota.ru/saint-asonia/leaving-minnesota-chords.htm
Привет, Гость.
Предлагаем пройти революционный курс по гитаре.
Подарок от PrimaNota.Ru, забирай!