PrimaNota.ru - самый крупный в мире бесплатный архив песенных текстов, аккордов, табулатур и нот


Saint Asonia - Better Place - таба, видео

Регистрация Запомнить меня
Войти через:  Facebook Google Twitter Vk Yandex Mail.ru

Saint Asonia - Better Place - таба, видео

Печатать
Просмотров: 434
Авторы: Mike Mushok, Adam Gontier

Tabbed by: SoarStaraptor

Saint Asonia - Better Place 'Tab'


This is a tab of Better Place by the new band Saint Asonia. Now learn!


Tuning: Drop C#


Intro:
Guitar 1 (0:00) DISTORTION
D#------------------------------------------|
A#------------------------------------------|
F#------------------------------------------|
C#------------------------------------------|
G#------------------------------------------|
C#--0-10-12-0-10-12-0-10-12-10-0-12---0-0-0-|
    * *  *  * *  *  * *  *  *  * *    * * *

Guitar 1 & 2 (0:04)
D#------------------------------------------|
A#------------------------------------------|
F#------------------------------------------|
C#------------------------------------------| x4
G#--0h10h12p0-10h12h0-10h12p0-10h12---0-0-0-|
C#--0h10h12p0-10h12h0-10h12p0-10h12---0-0-0-|
                                      * * *

Verse: 
Guitar (0:24) (Heard this, not sure if guitar or bass)
D#------------------------------------------|
A#------------------------------------------|
F#------------------------------------------|
C#------------------------------------------| x4
G#------------------------------------------|
C#--0-10-12-0-10-12-0-10-12-0-10-12---0-0-0-|
    * *  *  * *  *  * *  *  * *  *    * * *

Pre-Chorus:
Guitar 1 or 2 (0:34)
D#------------------------------------------|
A#------------------------------------------|
F#------------------------------------------|
C#------------------------------------------| x4
G#--0h10h12p0-10h12h0-10h12p0-10h12---0-0-0-|
C#--0h10h12p0-10h12h0-10h12p0-10h12---0-0-0-|
                                      * * *

Chorus:
Guitar 1: (0:44)
D#------------------------------------------------------------------------------------|
A#--------------------------------------------------------------------------------3---|
F#----------------5--5--5--5----------------------------------------5-5-5-5-------2---|
C#--3--3--3--3----5--5--5--5----5---5---5-5-0-0---0---0---3-3-3-3---5-5-5-5---0-------|
G#--3--3--3--3----3--3--3--3----5---5---5-5-0-0---0---0---3-3-3-3---3-3-3-3---0-------|
C#--3--3--3--3------------------5---5---5-5-0-0---0---0---3-3-3-3-------------0-------|
  ..Me with all of your..     Problems..      Don't weigh me down..         ..fears!

Guitar 2 (0:44)
D#------------------------------------------------------------------------------------|
A#--------------------------------------------------------------------------------3---|
F#--10-10-10-10-----------------------------7-7---7---7-------------5-5-5-5-------2---|
C#--10-10-10-10---10-10-10-10---5---5---5-5-7-7---7---7---3-3-3-3---5-5-5-5---0-------|
G#--8--8--8--8----10-10-10-10---5---5---5-5-5-5---5---5---3-3-3-3---3-3-3-3---0-------|
C#----------------10-10-10-10---5---5---5-5---------------3-3-3-3-------------0-------|  

Guitar 1: (0:55)
D#----------------------------------------------------------------------------|
A#----------------------------------------------------------------------------|
F#----------------5--5--5--5----------------------------------------5-5-5-5---|
C#--3--3--3--3----5--5--5--5----5---5---5-5-0-0---0---0---3-3-3-3---5-5-5-5---|
G#--3--3--3--3----3--3--3--3----5---5---5-5-0-0---0---0---3-3-3-3---3-3-3-3---|
C#--3--3--3--3------------------5---5---5-5-0-0---0---0---3-3-3-3-------------|
  ..Out of my life..          Forever..       To tear apart this pain that I..

Guitar 2 (0:55)
D#----------------------------------------------------------------------------|
A#----------------------------------------------------------------------------|
F#--10-10-10-10-----------------------------7-7---7---7-------------5-5-5-5---|
C#--10-10-10-10---10-10-10-10---5---5---5-5-7-7---7---7---3-3-3-3---5-5-5-5---|
G#--8--8--8--8----10-10-10-10---5---5---5-5-5-5---5---5---3-3-3-3---3-3-3-3---|
C#----------------10-10-10-10---5---5---5-5---------------3-3-3-3-------------|
  
Guitar 2 (1:03)
D#------------------------------------------|
A#------------------------------------------|
F#------------------------------------------|
C#------------------------------------------|
G#------------------------------------------|
C#--0-10-12-0-10-12-0-10-12-10-0-12---0-0-0-|
    * *  *  * *  *  * *  *  *  * *    * * *
    Feel!

Post-Chorus:
Guitar 1 & 2 (1:05)
D#------------------------------------------|
A#------------------------------------------|
F#------------------------------------------|
C#------------------------------------------| x2
G#--0h10h12p0-10h12h0-10h12p0-10h12---0-0-0-|
C#--0h10h12p0-10h12h0-10h12p0-10h12---0-0-0-|
                                      * * *

Verse:
Guitar 1 or 2 (1:20)
D#------------------------------------------|
A#------------------------------------------|
F#------------------------------------------|
C#------------------------------------------| x4
G#------------------------------------------|
C#--0-10-12-0-10-12-0-10-12-0-10-12---0-0-0-|
    * *  *  * *  *  * *  *  * *  *    * * *

Pre-Chorus:
Guitar 1 or 2 (1:30)
D#------------------------------------------|
A#------------------------------------------|
F#------------------------------------------|
C#------------------------------------------| x4
G#--0h10h12p0-10h12h0-10h12p0-10h12---0-0-0-|
C#--0h10h12p0-10h12h0-10h12p0-10h12---0-0-0-|
                                      * * *

Chorus 2:
Guitar 1: (1:41)
D#------------------------------------------------------------------------------------|
A#--------------------------------------------------------------------------------3---|
F#----------------5--5--5--5----------------------------------------5-5-5-5-------2---|
C#--3--3--3--3----5--5--5--5----5---5---5-5-0-0---0---0---3-3-3-3---5-5-5-5---0-------|
G#--3--3--3--3----3--3--3--3----5---5---5-5-0-0---0---0---3-3-3-3---3-3-3-3---0-------|
C#--3--3--3--3------------------5---5---5-5-0-0---0---0---3-3-3-3-------------0-------|
  ..Me with all of your..     Problems..      Don't weigh me down..         ..fears!


Guitar 2 (1:41)
D#------------------------------------------------------------------------------------|
A#--------------------------------------------------------------------------------3---|
F#--10-10-10-10-----------------------------7-7---7---7-------------5-5-5-5-------2---|
C#--10-10-10-10---10-10-10-10---5---5---5-5-7-7---7---7---3-3-3-3---5-5-5-5---0-------|
G#--8--8--8--8----10-10-10-10---5---5---5-5-5-5---5---5---3-3-3-3---3-3-3-3---0-------|
C#----------------10-10-10-10---5---5---5-5---------------3-3-3-3-------------0-------|
  

Guitar 1: (1:51)
D#------------------------------------------------------------------------------------|
A#--------------------------------------------------------------------------------3---|
F#----------------5--5--5--5----------------------------------------5-5-5-5-------2---|
C#--3--3--3--3----5--5--5--5----5---5---5-5-0-0---0---0---3-3-3-3---5-5-5-5---0-------|
G#--3--3--3--3----3--3--3--3----5---5---5-5-0-0---0---0---3-3-3-3---3-3-3-3---0-------|
C#--3--3--3--3------------------5---5---5-5-0-0---0---0---3-3-3-3-------------0-------|
  ..Out of my life..          Forever..       To tear apart this pain that I feel!

Guitar 2 (1:51)
D#------------------------------------------------------------------------------------|
A#--------------------------------------------------------------------------------3---|
F#--10-10-10-10-----------------------------7-7---7---7-------------5-5-5-5-------2---|
C#--10-10-10-10---10-10-10-10---5---5---5-5-7-7---7---7---3-3-3-3---5-5-5-5---0-------|
G#--8--8--8--8----10-10-10-10---5---5---5-5-5-5---5---5---3-3-3-3---3-3-3-3---0-------|
C#----------------10-10-10-10---5---5---5-5---------------3-3-3-3-------------0-------|
  

Bridge/Solo:
Guitar 1: (2:01)
D#--------------------------------------------------------|
A#--------------------------------------------------------|
F#--------------------------------------------------------|
C#-10----10----10-10-10-10----12-----12-----12-12-12-12---|
G#-8-----8-----8--8--8--8-----10-----10-----10-10-10-10---|
C#-8-----8-----8--8--8--8-----10-----10-----10-10-10-10---|

Guitar 2: (2:01)
D#------------------------0-------------------------------|
A#---------------------------6/8-----6--8-----------------|
F#-5/7---9-/10---10--9--7---------9--------10--9--12------|
C#--------------------------------------------------------|
G#--------------------------------------------------------|
C#--------------------------------------------------------|

Guitar 1: (2:09)
D#------------------------------------------|
A#------------------------------------------|
F#------------------------------------------|
C#------------------------------------------| x2
G#-0h5h7p0--7h8p0--8h10p0-10h12p0--10h12p0--|
C#-0h5h7p0--7h8p0--8h10p0-10h12p0--10h12p0--|

Guitar 2: (2:09)
D#-----------------------------------------------------------------------------------------|
A#-13b--13rb-13b---15-18-15----15-------18-15----15----------------------------------------|
F#--------------------------17----17-14-------17----17-14-17-14----14----------------------|
C#--------------------------------------------------------------17----17-15-17-15----15----|
G#--------------------------------------------------------------------------------17----17-|
C#-----------------------------------------------------------------------------------------|

Guitar 1: (2:11)
D#--------------------------------------------------|
A#--------------------------------------------------|
F#--------------------------------------------------|
C#-10----10----10-10-10-10----7-----7-----7-7-7-7---|
G#-8-----8-----8--8--8--8-----5-----5-----5-5-5-5---|
C#-8-----8-----8--8--8--8-----5-----5-----5-5-5-5---|

Guitar 2: (2:11)
D#-0----0---8-----7-----------------0---------0--------0-|
A#-6-----------------8--0-----3----------/8------/13-----|
F#-------------------------------------------------------|
C#-------------------------------------------------------|
G#-------------------------------------------------------|
C#-------------------------------------------------------|

Guitar 1: (2:16)
D#------------------------------------------|
A#------------------------------------------|
F#------------------------------------------|
C#------------------------------------------| x2
G#-0h5h7p0--7h8p0--8h10p0-10h12p0--10h12p0--|
C#-0h5h7p0--7h8p0--8h10p0-10h12p0--10h12p0--|

Guitar 2: (2:16-2:21) TAPPING NOTES OR RAPID PICKING
D#-5-3-0---8-5-0--10-8-0--8-5-0---13-10-0--10-8-0--8-5-0--10-8-0-----|
A#-------------------------------------------------------------------|
F#-------------------------------------------------------------------|
C#-------------------------------------------------------------------|
G#-------------------------------------------------------------------|
C#-------------------------------------------------------------------|

D#-5-3-0---8-5-0--10-8-0--8-5-0--17-12-0--13-10-0--10-5-0--13-10-0---|
A#-------------------------------------------------------------------|
F#-------------------------------------------------------------------|
C#-------------------------------------------------------------------|
G#-------------------------------------------------------------------|
C#-------------------------------------------------------------------|

Guitar 1: (2:22)
D#----------------------------------------------------|
A#----------------------------------------------------|
F#----------------------------------------------------|
C#-10----10----10-10-10-10----7-----7-----7-7-7-7-----|
G#-8-----8-----8--8--8--8-----5-----5-----5-5-5-5-----|
C#-8-----8-----8--8--8--8-----5-----5-----5-5-5-5-----|

Guitar 2: (2:22)
D#----------------------------------------------------|
A#----------------------------------------------------|
F#-12b---12--10--12--10--9--10---\9---7---9--\7---5---|
C#----------------------------------------------------|
G#----------------------------------------------------|
C#----------------------------------------------------|

Guitar 1: (2:27)
D#--------------------------------------------------------|
A#--------------------------------------------------------|
F#--------------------------------------------------------|
C#-10----10----10-10-10-10----12-----12-----12-12-12-12---|
G#-8-----8-----8--8--8--8-----10-----10-----10-10-10-10---|
C#-8-----8-----8--8--8--8-----10-----10-----10-10-10-10---|

Guitar 2: (2:27)
D#----------------------------0-5-0--8-0-0--8-0-0--10-0-0--10-0-0--13-0-0--13-0-0--15-0-0-|
A#-13brb-------13b-13-11-13---------------------------------------------------------------|
F#----------------------------------------------------------------------------------------|
C#----------------------------------------------------------------------------------------|
G#----------------------------------------------------------------------------------------|
C#----------------------------------------------------------------------------------------|

Post-bridge/Solo:
Guitar 1: (2:32)
D#------------------------------------------|
A#------------------------------------------|
F#------------------------------------------|
C#------------------------------------------| x4
G#------------------------------------------|
C#--0-10-12-0-10-12-0-10-12-0-10-12---0-0-0-|
    * *  *  * *  *  * *  *  * *  *    * * *

Guitar 2: (2:32) RAPIDLY PICK
D#------------------------------------------|
A#-20b--------------------------------------| 
F#------------------------------------------| (gradually bend and rapidly pick
C#------------------------------------------|  until second measure of Guitar 1)
G#------------------------------------------|
C#------------------------------------------|

Chorus 3:
Guitar 1: (2:42)
D#------------------------------------------------------------------------------------|
A#--------------------------------------------------------------------------------3---|
F#----------------5--5--5--5----------------------------------------5-5-5-5-------2---|
C#--3--3--3--3----5--5--5--5----5---5---5-5-0-0---0---0---3-3-3-3---5-5-5-5---0-------| x3
G#--3--3--3--3----3--3--3--3----5---5---5-5-0-0---0---0---3-3-3-3---3-3-3-3---0-------|
C#--3--3--3--3------------------5---5---5-5-0-0---0---0---3-3-3-3-------------0-------|

Guitar 2: (2:42)
D#------------------------------------------------------------------------------------|
A#--------------------------------------------------------------------------------3---|
F#--10-10-10-10-----------------------------7-7---7---7-------------5-5-5-5-------2---|
C#--10-10-10-10---10-10-10-10---5---5---5-5-7-7---7---7---3-3-3-3---5-5-5-5---0-------| x3
G#--8--8--8--8----10-10-10-10---5---5---5-5-5-5---5---5---3-3-3-3---3-3-3-3---0-------|
C#----------------10-10-10-10---5---5---5-5---------------3-3-3-3-------------0-------|


Guitar 1: (3:12)
D#----------------------------------------------------------------------------|
A#----------------------------------------------------------------------------|
F#----------------5--5--5--5----------------------------------------5-5-5-5---|
C#--3--3--3--3----5--5--5--5----5---5---5-5-0-0---0---0---3-3-3-3---5-5-5-5---|
G#--3--3--3--3----3--3--3--3----5---5---5-5-0-0---0---0---3-3-3-3---3-3-3-3---|
C#--3--3--3--3------------------5---5---5-5-0-0---0---0---3-3-3-3-------------|
  ..Out of my life..          Forever..       To tear apart this pain that I..

Guitar 2: (3:12)
D#----------------------------------------------------------------------------|
A#----------------------------------------------------------------------------|
F#--10-10-10-10-----------------------------7-7---7---7-------------5-5-5-5---|
C#--10-10-10-10---10-10-10-10---5---5---5-5-7-7---7---7---3-3-3-3---5-5-5-5---|
G#--8--8--8--8----10-10-10-10---5---5---5-5-5-5---5---5---3-3-3-3---3-3-3-3---|
C#----------------10-10-10-10---5---5---5-5---------------3-3-3-3-------------|

Guitar 2: (3:20)
D#------------------------------------------|
A#------------------------------------------|
F#------------------------------------------|
C#------------------------------------------|
G#------------------------------------------|
C#--0-10-12-0-10-12-0-10-12-10-0-12---0-0-0-|
    * *  *  * *  *  * *  *  *  * *    * * *
    Feel!

Post-Chorus:
Guitar 1 & 2 (3:23)
D#------------------------------------------|
A#------------------------------------------|
F#------------------------------------------|
C#------------------------------------------| x3
G#--0h10h12p0-10h12h0-10h12p0-10h12---0-0-0-|
C#--0h10h12p0-10h12h0-10h12p0-10h12---0-0-0-|
                                      * * *
Guitar 1 & 2 (3:30)
D#---------------------------------------|
A#---------------------------------------|
F#---------------------------------------|
C#---------------------------------------|
G#--0h10h12p0-10h12h0-10h12p0-10h12--\-X-|
C#--0h10h12p0-10h12h0-10h12p0-10h12--\-X-|

That's all she wrote!

NOTE: The solo was extremely difficult for me, since I'm not a soloing kind of guy. I had to
decrease tempo to where it plays slow so I could figure out the notes. Not entirely sure of
the solo being completely accurate. I will leave tab open to contributors who could improve
the solo if needed otherwise.

Key:
h = hammer on
p = pull-off
/ = slide up
\ = slide down
b = bend
rb = release bend
* = palm mute
Добавлено: 28.10.2015
Другие материалы по этой песне:

Страница создана 28.10.2015
http://primanota.ru/saint-asonia/better-place-chords.htm
Привет, Гость.
Предлагаем пройти революционный курс по гитаре.
Подарок от PrimaNota.Ru, забирай!