PrimaNota.ru - самый крупный в мире бесплатный архив песенных текстов, аккордов, табулатур и нот


Saint Asonia - Blow Me Wide Open - таба, видео

Регистрация Запомнить меня
Войти через:  Facebook Google Twitter Vk Yandex Mail.ru

Saint Asonia - Blow Me Wide Open - таба, видео

Печатать
Просмотров: 333
-------------------------------------------------------------------------------
                             BLOW ME WIDE OPEN - Saint Asonia
-------------------------------------------------------------------------------
Tabbed by:
E-mail:jonahwanderson@gmail.com

Mike Mushok plays this on a 7 string, but i tabbed it for a Drop B 6 string.

Tuning:
Intro/Verse
e|---------------------------------------------------------------------------|
B|---------------------------------------------------------------------------|
G|---------------------------------------------------------------------------|
D|---------------------------------------------------------------------------|
A|-----/5----------------------------/5--------------------------------------|
E|--0-----3--5--5--5--5--3-----0--0------3--5----5---3-----------------------|

e|---------------------------------------------------------------------------|
B|---------------------------------------------------------------------------|
G|---------------------------------------------------------------------------|
D|----------------------------6p5--3--5--3--0--------------------------------|
A|-----/5---------------------6p5--3--5--3--0--------------------------------|
E|--0-----3--5--5--5--5--3----6p5--3--5--3--0--------------------------------|

Prechorus

   Forgettable                  And So Replaceable
e|---------------------------------------------------------------------------|
B|---------------------------------------------------------------------------|
G|---------------------------------------------------------------------------|
D|--8--8--0--7--7--7------------8---------10---------------------------------|
A|--8--8--0--7--7--7------------8---------10---------------------------------|
E|--8--8--0--7--7--7------------8---------10---------------------------------|

Chorus

e|---------------------------------------------------------------------------|
B|---------------------------------------------------------------------------|
G|--7------------------------------------------------------------------------|
D|--7-------8------3-------7------8------------------------------------------|
A|--5-------8------3-------7------8------------------------------------------|
E|-(0)------8------3-------7------8------------------------------------------|

e|---------------------------------------------------------------------------|
B|---------------------------------------------------------------------------|
G|--7------------------------------------------------------------------------|
D|--7-------8------3-------7-------------------------------------------------|
A|--5-------8------3-------7-------------------------------------------------|
E|-(0)------8------3-------7------7--5--3---5--3--2--------------------------|

Bridge

e|---------------------------------------------------------------------------|
B|---------------------------------------------------------------------------|
G|--7------------------------------------------------------------------------|
D|--7---7---10----5----8---3---7----8----------------------------------------|
A|--5---7---10----5----8---3---7----8----------------------------------------|
E|------7---10----5----8---3---7----8----------------------------------------|

e|---------------------------------------------------------------------------|
B|---------------------------------------------------------------------------|
G|--7------------------------------------------------------------------------|
D|--7----8---3---7~~~~-----x-8---x-10----------------------------------------|
A|--5----8---3---7~~~~-----x-8---x-10----------------------------------------|
E|-------8---3---7~~~~-----x-8---x-10----------------------------------------|


************************************

| /   slide up
| \   slide down
| h   hammer-on
| p   pull-off
| ~   vibrato
| +   harmonic
| x   Mute note
| b   Bend
| pb  Pre-bend
| br  Bend release
| pbr Pre-bend release
| brb Bend release bend

************************************
Добавлено: 28.10.2015
Другие материалы по этой песне:
  • Аккорды и текст

Страница создана 28.10.2015
http://primanota.ru/saint-asonia/blow-me-wide-open-chords.htm
Привет, Гость.
Предлагаем пройти революционный курс по гитаре.
Подарок от PrimaNota.Ru, забирай!