PrimaNota.ru - самый крупный в мире бесплатный архив песенных текстов, аккордов, табулатур и нот


Sabaton - Panzerkampf - текст песни, бас-таба, видео

Регистрация Запомнить меня
Войти через:  Facebook Google Twitter Vk Yandex Mail.ru

Sabaton - Panzerkampf - текст песни, бас-таба, видео

Печатать
Просмотров: 88
Уроки эстрадного вокала в Санкт-Петербурге
Авторы музыки: Joakim Brodén
Авторы текста: Pär Sundström, Joakim Brodén
-------------------------------------------------------------------------------
                             Panzerkampf - Sabaton
-------------------------------------------------------------------------------
Tabbed by: zoltan56

referenced from songsterr sheet music/tabs

Intro: X2
G|-------------|---------------|-------------|---------------|
D|-------------|---------------|-------------|---------------|
A|-------------|---------------|-------------|---------------|
E|-2--2--2--2--|-2--2-0-2-3-2--|-2--2--2--2--|-2--2-0-2-3-2--|
B|-------------|---------------|-------------|---------------|

Verse 1: X2
G|-------------|-------------|-------------|--------------|
D|-------------|-------------|-------------|--------------|
A|-------------|-------------|-------------|--------------|
E|-2--2--2--2--|-2--2--2--2--|-2--2--2--2--|-2--2--2--2-0-|
B|-------------|-------------|-------------|--------------|

G|-------------|-------------|-------------|-------------|
D|-------------|-------------|-------------|-------------|
A|-------------|-------------|-------------|-------------|
E|-2--2--2--2--|-------------|-0--0--0--0--|-------------|
B|-------------|-0--0--0--0--|-------------|-3--3--2--2--|

Pre-Chorus 1:
G|-------------|-------------|-------------|-------------|
D|-------------|-------------|-------------|-------------|
A|-2--2--2--2--|-------------|-5--5--5--5--|-------------|
E|-------------|-2--2--2--2--|-------------|-5--5--5--5--|
B|-------------|-------------|-------------|-------------|

G|-------------|-------------|-------------|-------------|--------------|
D|-------------|-------------|-------------|-------------|--------------|
A|-2--2--2--2--|-------------|-5--5--5--5--|-4--4--4--4--|-4---2-4-5-4--|
E|-------------|-2--2--2--2--|-------------|-------------|--------------|
B|-------------|-------------|-------------|-------------|--------------|

Chrous 1: X2
G|-------------|---------------|-------------|---------------|
D|-------------|---------------|-------------|---------------|
A|-------------|---------------|-------------|---------------|
E|-2--2--2--2--|-2--2-0-2-3-2--|-2--2--2--2--|-2--2-0-2-3-2--|
B|-------------|---------------|-------------|---------------|

Verse 2: X2
G|-------------|-------------|-------------|--------------|
D|-------------|-------------|-------------|--------------|
A|-------------|-------------|-------------|--------------|
E|-2--2--2--2--|-2--2--2--2--|-2--2--2--2--|-2--2--2--2-0-|
B|-------------|-------------|-------------|--------------|

G|-------------|-------------|-------------|-------------|
D|-------------|-------------|-------------|-------------|
A|-------------|-------------|-------------|-------------|
E|-2--2--2--2--|-------------|-0--0--0--0--|-------------|
B|-------------|-0--0--0--0--|-------------|-3--3--2--2--|

Pre-Chorus 2:
G|-------------|-------------|-------------|-------------|
D|-------------|-------------|-------------|-------------|
A|-2--2--2--2--|-------------|-5--5--5--5--|-------------|
E|-------------|-2--2--2--2--|-------------|-5--5--5--5--|
B|-------------|-------------|-------------|-------------|

G|-------------|-------------|-------------|-------------|--------------|
D|-------------|-------------|-------------|-------------|--------------|
A|-2--2--2--2--|-------------|-5--5--5--5--|-4--4--4--4--|-4---2-4-5-4--|
E|-------------|-2--2--2--2--|-------------|-------------|--------------|
B|-------------|-------------|-------------|-------------|--------------|

Chorus 2: X2
G|-------------|---------------|-------------|---------------|
D|-------------|---------------|-------------|---------------|
A|-------------|---------------|-------------|---------------|
E|-2--2--2--2--|-2--2-0-2-3-2--|-2--2--2--2--|-2--2-0-2-3-2--|
B|-------------|---------------|-------------|---------------|

Interlude:
G|---------------|---------------|---------------|---------------|
D|---------------|---------------|---------------|---------------|
A|-22202--22202--|-22202--22202--|-22202--22202--|---------------|
E|---------------|---------------|---------------|-22202--22202--|
B|---------------|---------------|---------------|---------------|

G|---------------|---------------|---------------|---------------|X3
D|---------------|---------------|---------------|---------------|X3
A|---------------|-22202--22202--|-22202--22202--|---------------|X3
E|-55535--55535--|---------------|---------------|-22202--22202--|X3
B|---------------|---------------|---------------|---------------|X3

G|---------------|------------------|
D|---------------|------------------|
A|---------------|------------------|
E|-55535--55535--|------------------|
B|---------------|-2-22222222222222-|

Solo:
G|-----------------|-----------------|-----------------|-----------------|X2
D|-----------------|-----------------|-----------------|-----------------|X2
A|-----------------|-----------------|-----------------|-----------------|X2
E|-2-2-2-2-2-2-2-2-|-0-0-0-0-0-0-0-0-|-2-2-2-2-2-2-2-2-|-0-0-0-0-0-0-0-0-|X2
B|-----------------|-----------------|-----------------|-----------------|X2

G|-----------------|-----------------|-----------------|-----------------|-----------------|
D|-----------------|-----------------|-----------------|-----------------|-----------------|
A|-----------------|-----------------|-----------------|-----------------|--4--2-----------|
E|-----------------|-----------------|-----------------|-----------------|-------5-4--2--0-|
B|-2-2222222223--3-|-2-2222222220--3-|-2-2222222223--3-|-2-2222222220--3-|-----------------|

Pre-Chorus 3:
G|-------------|-------------|-------------|-------------|
D|-------------|-------------|-------------|-------------|
A|-2--2--2--2--|-------------|-5--5--5--5--|-------------|
E|-------------|-2--2--2--2--|-------------|-5--5--5--5--|
B|-------------|-------------|-------------|-------------|

G|-------------|-------------|-------------|-------------|--------------|
D|-------------|-------------|-------------|-------------|--------------|
A|-2--2--2--2--|-------------|-5--5--5--5--|-4--4--4--4--|-4---2-4-5-4--|
E|-------------|-2--2--2--2--|-------------|-------------|--------------|
B|-------------|-------------|-------------|-------------|--------------|

Outro:
G|-------------|---------------|-------------|---------------|
D|-------------|---------------|-------------|---------------|
A|-------------|---------------|-------------|---------------|
E|-2--2--2--2--|-2--2-0-2-3-2--|-2--2--2--2--|-2--2-0-2-3-2--|
B|-------------|---------------|-------------|---------------|

G|-------------|---------------|-------------|---------------|
D|-------------|---------------|-------------|---------------|
A|-------------|---------------|-------------|---------------|
E|-2--2--2--2--|-2--2-0-2-3-2--|-2--2--2--2--|-2--------3-2--|
B|-------------|---------------|-------------|---------------|

ENJOY!!!

| /  slide up
| \  slide down
| h  hammer-on
| p  pull-off
| ~  vibrato
| +  harmonic
| x  Mute note
===============================================================================
Добавлено: 19.06.2017
Другие материалы по этой песне:

Страница создана 12.05.2012
http://primanota.ru/sabaton/panzerkampf-chords.htm
Привет, Гость.
Предлагаем пройти революционный курс по гитаре.
Подарок от PrimaNota.Ru, забирай!