PrimaNota.ru - самый крупный в мире бесплатный архив песенных текстов, аккордов, табулатур и нот


Sabaton - The Art Of War - текст песни, бас-таба, видео

Регистрация Запомнить меня
Войти через:  Facebook Google Twitter Vk Yandex Mail.ru

Sabaton - The Art Of War - текст песни, бас-таба, видео

Печатать
Просмотров: 257
Авторы музыки: Joakim Brodén
Авторы текста: Joakim Brodén
-------------------------------------------------------------------------------
                             The Art of War - Sabaton
-------------------------------------------------------------------------------
Tabbed by: zoltan56

references from sheet music (songsterr)

Intro: small pause to start
G|--------------|-----------------|------------------|
D|--------------|-----------------|------------------|
A|--------------|-----------------|---------5--------|
E|-0------0-0---|---0---0---0-0---|---0---0-------2--|

Pre Verse:
G|--------------------|--------------------|---------------------------------|X2
D|--------------------|--------------------|---------------------------------|X2
A|--------------------|--------------------|----------5----------------------|X2
E|-0000-0-0000-0-0-00-|-0000-0-0000-0-0-00-|-00-0-0-00------2----------------|X2

G|-----------------|
D|-----------------|
A|---------023-----|
E|-0~~~---------32-|

Verse 1:
G|-------------------|-------------------|-------------------|-------------------|
D|-------------------|-------------------|-------------------|-------------------|
A|------------33-0-3-|-------------0-2-3-|------------33-0-3-|-------------------|
E|-0-0-0-0--0--------|-0-0-0-0-0---------|-0-0-0-0--0--------|-3-3-3-3-2---2-2-2-|

G|-------------------|-------------------|-------------------|-----------------|
D|-------------------|-------------------|-------------------|-----------------|
A|------------33-0-3-|-------------0-2-3-|------------33-0-3-|-----------------|
E|-0-0-0-0--0--------|-0-0-0-0-0---------|-0-0-0-0--0--------|-3-3-3-3-2-2-2-2-|

Pre Chorus:
G|-----------------|---------------|-----------------|-----------------------|
D|-----------------|---------------|-----------------|-----------------------|
A|-232---232---235-|-232---230---3-|-232---232---235-|-232------3----5-------|
E|-----00----00----|-----00--------|-----00----00----|-----0000--------------|

Chorus 1:
G|--------------------|--------------------|---------------------------------|X2
D|--------------------|--------------------|---------------------------------|X2
A|--------------------|--------------------|----------5----------------------|X2
E|-0000-0-0000-0-0-00-|-0000-0-0000-0-0-00-|-00-0-0-00------2----------------|X2

G|-----------------|
D|-----------------|
A|---------023-----|
E|-0~~~---------32-|

Verse 2:
G|-------------------|-------------------|-------------------|-------------------|
D|-------------------|-------------------|-------------------|-------------------|
A|------------33-0-3-|-------------0-2-3-|------------33-0-3-|-------------------|
E|-0-0-0-0--0--------|-0-0-0-0-0---------|-0-0-0-0--0--------|-3-3-3-3-2---2-2-2-|

G|-------------------|-------------------|-------------------|-----------------|
D|-------------------|-------------------|-------------------|-----------------|
A|------------33-0-3-|-------------0-2-3-|------------33-0-3-|-----------------|
E|-0-0-0-0--0--------|-0-0-0-0-0---------|-0-0-0-0--0--------|-3-3-3-3-2-2-2-2-|

Pre Chorus:
G|-----------------|---------------|-----------------|-----------------------|
D|-----------------|---------------|-----------------|-----------------------|
A|-232---232---235-|-232---230---3-|-232---232---235-|-232------3----5-------|
E|-----00----00----|-----00--------|-----00----00----|-----0000--------------|

Chorus 2:
G|--------------------|--------------------|---------------------------------|X2
D|--------------------|--------------------|---------------------------------|X2
A|--------------------|--------------------|----------5----------------------|X2
E|-0000-0-0000-0-0-00-|-0000-0-0000-0-0-00-|-00-0-0-00------2----------------|X2

Break: X2
G|------------|------------|
D|------------|------------|
A|-22----3--0-|-22----3--5-|
E|------------|------------|

Solo: done in triplet fashion, next bar rolls straight from last.
G|------------------------------------------------------------------|
D|------------------------------------------------------------------|
A|---------------------------------3-333-335-555-55-----------------|
E|-0-000-000-000-000-000-000-000-00----------------0-000-000-000-00-|

G|------------------------------------------------------------------|
D|------------------------------------------------------------------|
A|---------------------------------3-333-335-555-55-----------------|
E|-3-333-332-222-220-000-000-000-00----------------0-000-000-000-00-|

G|----------------------------------|
D|----------------------------------|
A|----------------------------------|
E|-3-333-332-222-220-000-000-000-00-|

Keyboard Solo:
G|------------|------------|X2|-------------|
D|------------|------------|X2|-------------|
A|-22----3--0-|-22----3--5-|X2|-------------|
E|------------|------------|X2|-0--2--3--5--|

Pre Chorus:
G|-----------------|---------------|-----------------|-----------------------|
D|-----------------|---------------|-----------------|-----------------------|
A|-232---232---235-|-232---230---3-|-232---232---235-|-232------3----5-------|
E|-----00----00----|-----00--------|-----00----00----|-----0000--------------|

Chorus 3/Outro:
G|--------------------|--------------------|---------------------------------|X3
D|--------------------|--------------------|---------------------------------|X3
A|--------------------|--------------------|----------5----------------------|X3
E|-0000-0-0000-0-0-00-|-0000-0-0000-0-0-00-|-00-0-0-00------2----------------|X3

G|--------------|-----------------|------------------|---------------------|
D|--------------|-----------------|------------------|---------------------|
A|--------------|-----------------|---------5--------|-2~~~~~~~------------|
E|-0------0-0---|---0---0---0-0---|---0---0-------2--|-------------0---000-|


thats it, enjoy.


| /  slide up
| \  slide down
| h  hammer-on
| p  pull-off
| ~  vibrato
| +  harmonic
| x  Mute note
===============================================================================
Добавлено: 07.12.2015
Другие материалы по этой песне:

Страница создана 21.04.2012
http://primanota.ru/sabaton/the-art-of-war-chords.htm
Привет, Гость.
Предлагаем пройти революционный курс по гитаре.
Подарок от PrimaNota.Ru, забирай!