PrimaNota.ru - самый крупный в мире бесплатный архив песенных текстов, аккордов, табулатур и нот


Ry X - Sweat - таба, видео

Регистрация Запомнить меня
Войти через:  Facebook Google Twitter Vk Yandex Mail.ru

Ry X - Sweat - таба, видео

Печатать
Просмотров: 704
Уроки эстрадного вокала в Санкт-Петербурге
-------------------------------------------------------------------------------
                             Sweat - Ry X
-------------------------------------------------------------------------------
Tabbed by: Thomas R.

Tuning: Standard
Capo: 2nd fret

e|---------------------------------------------------------------------------|
B|---------------------------------------------------------------------------|
G|----------1-----------1-----------1----------------------------------------|
D|-----2----------2-----------2-----------2-----2----------------------------|
A|--4-----4----4-----4-----4-----4-----4-----0-------------------------------|
E|---------------------------------------------------------------------------|

e|---------------------------------------------------------------------------|
B|---------------------------------------------------------------------------|
G|-----------1-----------1-----------1-----------1---------------------------|
D|-----1-----------1-----------1-----------1---------------------------------|
A|--2-----2-----2-----2-----2-----2-----2-----2------------------------------|
E|---------------------------------------------------------------------------|

e|---------------------------------------------------------------------------|
B|-----------0---------------------------------------------------------------|
G|-----------------1-----------1---------------------------------------------|
D|-----2-----------------4-----------2-----2-----2---------------------------|
A|--0-----0-----0-----0-----0-----0-----0-----0------------------------------|
E|---------------------------------------------------------------------------|

Добавлено: 26.07.2014
Другие материалы по этой песне:
  • Аккорды и текст

Страница создана 26.07.2014
http://primanota.ru/ry-x/sweat-chords.htm
Привет, Гость.
Предлагаем пройти революционный курс по гитаре.
Подарок от PrimaNota.Ru, забирай!