PrimaNota.ru - самый крупный в мире бесплатный архив песенных текстов, аккордов, табулатур и нот


Ry X - Only - таба, видео

Регистрация Запомнить меня
Войти через:  Facebook Google Twitter Vk Yandex Mail.ru

Ry X - Only - таба, видео

Печатать
Просмотров: 93
Новый альбом группы 'Черный Кузнец' по культовому сериалу 'Сверхъестественное'!
RY X
Only
from the album Dawn

Tabbed by: neutralwar

I tried my best to transcibe what I could from this video: 
https://www.youtube.com/watch?v=WN8-1q8vj-s


Tuning is 'Low C Tuning' CGDGAD
Capo 3
Time Signature: 6/8


[Chorus]

Eb6add9   Gm11      Fsus4
D|-0---------0---------0---|
A|-0---------0---------0---|
G|-0---------0---------0---|
D|-2---------4---------0---|
G|-0---------4---------2---|
C|-0---------4---------2---|


[Verse]

D|--------------------------------------------------|
A|--------------------------------------------------|
G|-------0-----------0-----------0-----------0------|
D|---2-------2---2-------2---2-------2---2-------2--|
G|--------------------------------------------------|
C|-0---0---0---0---0---0---0---0---0---0---0---0----|

D|--------------------------------------------------|
A|--------------------------------------------------|
F|-------0-----------0-----------0-----------0------|
C|---0-------0---0-------0---0-------0---0-------0--|
G|--------------------------------------------------|
C|-4---4---4---4---4---4---2---2---2---2---2---2----|


[Variations]

You will have to listen to the song to hear timings as i haven't tabbed individual strums. 
Later on in the song he adds variations that you can play exactly as he does or have them so you can add 
them in when you feel is right.


[Fig 1 Eb6add9]
        
D|-0-0-0--|
A|-0-0-0--|
G|-0-0-0--|
D|-2/4\2--|
G|-0-0-0--|
C|-0-0-0--|

Fig 1: on the second bar of the Eb6add9 he will sometimes slide up to 4 for a few strums and then back down 
to 2 before changing to Gm11


[Fig 2 Fsus4]

D|---0-0---|
A|---0-0---|
G|---0-0---|
D|---0-0---|
G|---2/4---|
C|---2/4---|


[Fig 3 Fsus4]

D|---0-0---|
A|---0-0---|
G|---0-0---|
D|---0-0---|
G|---2-2---|
C|---2h4---|

Fig 2 & 3 are 2 endings to a bar of Fsus4 where he either slides up or hammers on to change the bass up 
to G for a few strums before moving back to Eb.


[Fig 4 Gm11]

D|---0-0---|
A|---0-0---|
G|---0-0---|
D|---0-0---|
G|---4/6---|
C|---4/6---|

Fig 4 same as fig 2 and 3 except on the bar of Gm11


[Fig 5 outro]

D|--------------------------------------------------|
A|-------0-----------0-----------0-----------0------|
G|--------------------------------------------------|
D|---2-------2---2-------2---2-------2---2-------2--|
G|--------------------------------------------------|
C|-0---0---0---0---0---0---0---0---0---0---0---0----|

D|--------------------------------------------------|
A|-------0-----------0-----------0-----------0------|
G|--------------------------------------------------|
D|---0-------0---0-------0---0-------0---0-------0--|
G|--------------------------------------------------|
C|-4---4---4---4---4---4---2---2---2---2---2---2----|


[Fig 6 Outro]

D|--------------------------------------------------|
A|--------------------------------------------------|
G|-------0-----------0-----------0-----------0------|
D|---0-------0---0-------0---0-------0---0-------0--|
G|--------------------------------------------------|
C|-0---0---0---0---0---0---0---0---0---0---0---0----|

D|--------------------------------------------------|
A|--------------------------------------------------|
G|-------0-----------0-----------0-----------0------|
D|---0-------0---0-------0---0-------0---0-------0--|
G|--------------------------------------------------|
C|-4---4---4---4---4---4---2---2---2---2---2---2----|


Fig 5 and 6 are 2 outros that he plays. Fig 5 on the studio version and Fig 6 in the cardinal session live
version (the video I posted at the top)


*******************************************************
h = Hammer On
/ = Slide
*******************************************************
Добавлено: 22.02.2018
Другие материалы по этой песне:
  • Аккорды и текст

Страница создана 22.02.2018
http://primanota.ru/ry-x/only-chords.htm
Привет, Гость.
Предлагаем пройти революционный курс по гитаре.
Подарок от PrimaNota.Ru, забирай!