PrimaNota.ru - самый крупный в мире бесплатный архив песенных текстов, аккордов, табулатур и нот


Ry X - Deliverance - аккорды и текст, видео

Регистрация Запомнить меня
Войти через:  Facebook Google Twitter Vk Yandex Mail.ru

Ry X - Deliverance - аккорды и текст, видео

Печатать
Просмотров: 83
Новый альбом группы 'Черный Кузнец' по культовому сериалу 'Сверхъестественное'!
Deliverance
Ry X
CAPO 2


For the first chorus, you should softly strum the strings top to bottom on a 
very rapid succession, just to create a background echo. 
The 2nd chorus of the song is very rhythmic. You should play the melody section the with the same 
rhythm as drum plays it. It always helps to play it along with the song.


[Intro]
                                      
       A7sus2      G/A       Gadd9         E    A    G 
e|--------x---------x----------x-----------x----x----x------|
B|--------0---------0----------0-----------x----x----x------|
G|--------0---------4----------2-----------x----x----x------|
D|--------5---------5----------5-----------x----x----x------|
A|--------0---------0----------x-----------x----x----x------|
E|--------x---------x----------x-----------0----5----3------|


[Verse]

  A7sus2                  G/A  A7sus2  
I been crawling up inside your lungs 
  A7sus2                  G/A  A7sus2   
Feeling up your mind with my tongue
  A7sus2                        G/A     A7sus2
I didn't need to know but now I need to run
  Gadd9    A7sus2   Gadd9    A7sus2
Tonight we roll, we lock we lunge 


[Chorus]

  A7sus2
I've been awake for deliverance
 G/A  A7sus2 Gadd9  A7sus2 
Deliverance, deliver me

  A7sus2
I've been awake for deliverance
 G/A  A7sus2 Gadd9  A7sus2 
Deliverance, deliver me


[Verse]

  E                    A      G 
Rolling up behind with gloves on
  E                    A      G 
Ready for your bite to be strong
  E 
We didn't have before what might have got us stung
  A         G      A         G 
Tonight we roll, we lock we lung


[Chorus]

e|-----------------|-----------------|-----------------|-----------------|
B|-----------------|-----------------|-----------------|-----------------|
G|--------------5--|--------------4--|--------------4--|--------------4--|
D|--------5--------|--------5--------|--------5--------|--------5--------|
A|-----0-----0-----|-----0-----0-----|-----0-----0-----|-----0-----0-----|
E|--0h-------------|--0h-------------|--0h-------------|--0h-------------|
   I've been awake for deliverance

e|-----------------|-----------------|-----------------|-----------------|
B|-----------------|-----------------|-----------------|-----------------|
G|--------------2--|--------------0--|--------------0--|--------------0--|
D|--------2--------|--------2--------|--------2--------|--------2--------|
A|-----0-----0-----|-----0-----0-----|-----0-----0-----|-----0-----0-----|
E|--0h-------------|--0h-------------|--0h-------------|--0h-------------|
   Delive~             ~rance                  

e|-----------------|-----------------|-----------------|-----------------|
B|-----------------|-----------------|-----------------|-----------------|
G|--------------2--|--------------0--|--------------0--|--------------0--|
D|--------2--------|--------2--------|--------2--------|--------2--------|
A|-----0-----0-----|-----0-----0-----|-----0-----0-----|-----0-----0-----|
E|--0h-------------|--0h-------------|--0h-------------|--0h-------------|
    Deliver             me



************************************

| x  Dead note
| h  Hammer-on

************************************
Добавлено: 22.02.2018
Другие материалы по этой песне:
  • Аккорды и текст

Страница создана 22.02.2018
http://primanota.ru/ry-x/deliverance-chords.htm
Привет, Гость.
Предлагаем пройти революционный курс по гитаре.
Подарок от PrimaNota.Ru, забирай!