PrimaNota.ru - самый крупный в мире бесплатный архив песенных текстов, аккордов, табулатур и нот


Rush - Tom Saywer - бас-таба, видео

Регистрация Запомнить меня
Войти через:  Facebook Google Twitter Vk Yandex Mail.ru

Rush - Tom Saywer - бас-таба, видео

Печатать
Просмотров: 114
cool song this is. i only been playing 4 about 4 months and Im 13, but I worked out the
hope u like it.


g|--------------------------------|
d|---------------------7--------10|
a|----7-------5-------------------|
e|00-0----00-0----00-0-----00-0---|

g|----------------------------------------------|
d|---------------------7--------10-10-9-7-10-9-7|
a|----7-------5---------------------------------|
e|00-0----00-0----00-0-----00-0-----------------|

g|------9-------7-----------------------|
d|---------------------7---10-9-7-------|
a|----7-------5-------------------10-9-7|
e|00-0----00-0----00-0------------------|

g|-------------------------------------------------------------------."what u say about his company is
d|---------------2-2-------------------------------------------------." what u say about society, catch
a|---------0-2-0----3-33---2-2-0-------------------------------------."mist, catch the myth, catch the
e|00-2-232-----------------------3-2-0----| mystery, catch the drift-."
reapeat again

g|------------------------------------------------------|
d|---------------2-2------------------------------------|
a|---------0-2-0----3-33-------2---0--0-2--2-2-2-2-0----|
e|00-2-232-----------------32--------3---------------0--|

g|-----------------|---|--------|          g|-----|
d|7---6--4-7--6-4--repeatX6-----|          d|-----|
a|--9--5--3--9-5---repeatX6-----| then do  a|----5|
e|------------------------------|          e|5-7--|


g|7---6--4-7--6-4--repeatX4-----|          d|-------|
d|--9--5--3--9-5---RepeatX4-------------------------|
a|--------------------------------------------------|
e|--------------------------------------------------|

g|-----------------|---|--------|          g|-------|
d|7---6--4-7--6-4--repeatX6-----|          d|-------|
a|--9--5--3--9-5---repeatX6-----| then do  a|----5-7|
e|------------------------------|          e|5-7----|

g|--------------------------------|
d|---------------------7--------10|
a|----7-------5-------------------|
e|00-0----00-0----00-0-----00-0---|

g|----------------------------------------------|
d|---------------------7--------10-10-9-7-10-9-7|
a|----7-------5---------------------------------|
e|00-0----00-0----00-0-----00-0-----------------|

g|------9-------7-----------------------|
d|---------------------7---10-9-7-------|
a|----7-------5-------------------10-9-7|
e|00-0----00-0----00-0------------------|

g|--------------------------------------|
d|---------------2-2--------------------|
a|---------0-2-0----3-33---2-2-0--------|
e|00-2-232-----------------------3-2-0--|
reapeat again

g|------------------------------------------------------|
d|---------------2-2------------------------------------|
a|---------0-2-0----3-33-------2---0--0-2--2-2-2-2-0----|
e|00-2-232-----------------32--------3---------------0--|

g|---------------------|
d|---------------------|    then it fades out to end of song
a|---------------------|
e|5---7---5---7---5---7|

i hope all u out there liked this tab. i play it and it seems near enough like the real 
 GOOGLEFLAGE!!!
Добавлено: 18.05.2012
Другие материалы по этой песне:
  • Аккорды и текст

Страница создана 18.05.2012
http://primanota.ru/rush/tom-saywer-chords.htm
Привет, Гость.
Предлагаем пройти революционный курс по гитаре.
Подарок от PrimaNota.Ru, забирай!