PrimaNota.ru - самый крупный в мире бесплатный архив песенных текстов, аккордов, табулатур и нот


Rush - The Fountain Of Lamneth I In The Valley - таба, видео

Регистрация Запомнить меня
Войти через:  Facebook Google Twitter Vk Yandex Mail.ru

Rush - The Fountain Of Lamneth I In The Valley - таба, видео

Печатать
Просмотров: 71
                    THE FOUNTAIN OF LAMNETH: I. IN THE VALLEY
                               As recorded by Rush
                      (From the 1975 Album CARESS OF STEEL)

Words by Peart Music by Lee & Lifeson
Transcribed by charlesdbruce@hotmail.com
Last Updated: 2004-05-14

           D                 F#m7/C#                Bm                  Bm/A
      x x 0 2 3 2          x 4 2 2 2 2          x 2 4 4 3 2          x 0 4 4 
3 2

           G                Dadd11/F#                E                   E7
      3 2 0 0 3 3          2 0 0 0 3 3          0 2 2 1 0 0          0 2 2 1 
3 0

           A                   D5                  D5/E                 D/F#
      x 0 2 2 2 0          x x 0 2 3 x          x x 2 2 3 x          x x 4 2 
3 x

         GIII                  AV                 Badd11               
Aadd9/E
      x x 5 4 3 x          x 0 7 6 5 0          7 9 9 8 0 0          0 7 7 6 
0 x

          DV                C(type 2)              DVII                  Em7
      x 5 7 7 7 x          8 7 5 5 x x         10 9 7 7 x x          0 2 2 0 
3 0

         G5/D                 G5/F#             Em7(type 2)             
Copen
      x x 0 0 3 3          x x 4 0 3 3          0 2 2 0 3 3          x 3 2 0 
1 0

          C/B                 Fmaj7                G6/D                
Dadd11
      x 2 x 0 1 0          1 3 3 2 1 0          x 5 5 4 3 0          x 5 4 0 
3 5

Gtr I & II (E A D G B E) - 12 string gtr.
Gtr III (E A D G B E) - 'Overdriven Electric Guitar'
Gtr IV (E A D G B E) - 'Clean Electric Guitar'

Intro
  Q=96
  D                 F#m7/C#           Bm                Bm/A
4/4
  Gtrs I, II
  E E E E E E E E   E E E E E E E E   E E E E E E E E   E E E E E E E E
|---------3-2-----|---------2-------|---------2-------|---------2-------|
|-3---3-------3---|-----2-----2-----|-----3-----3-----|-----3-----3-----|
|---2---2---------|-------2-----2---|-------4-----4---|-------4-----4---|
|-----------------|---2-------------|---4-------------|---4-------------|
|---------------0-|-4-------------4-|-2-------------2-|-0---------------|
|-----------------|-----------------|-----------------|---------------0-|


  G                 Dadd11/F#         E                A
  E E E E E E E E   E E E E E E E E   E E Q  E E E E   Q  E E E E E E
|---------3-------|---------3-------|--------0-----0-|-----------------|
|-----------3-----|-----------3-----|----------0-----|-2----2---3---5--|
|-----0-------0---|-----------------|------------1---|-2--2---4---6----|
|-----------------|-----0-----------|-----2----------|-2---------------|
|---2---2---------|---0---0---------|---2------------|-0---------------|
|-3-------------3-|-2-----------3-2-|-0--------------|-----------------|


  D                  F#m7/C#           Bm                Bm/A
  Q  E  E  E E E E   E E E E E E E E   E E E E E E E E   E E E E E E E E
|-2--2-----3-2-----|---------2-------|-----2---2-------|---------2--------|
|-3------------3---|-----2-----2-----|-------3---3-----|-----3-----3------|
|-2----(2)---------|-------2-----2---|-4-4---------4---|-------4-----4----|
|-0----------------|---2-------------|-4---------------|---4--------------|
|----------------0-|-4-------------4-|-2-------------2-|-0----------------|
|------------------|-----------------|-----------------|---------------0--|


  G                 Dadd11/F#         E             E7  A
  E E E E E E E E   E E E E E E E E   E E E E E E E E   Q  E E E E E E
|---------3-------|---------3-------|---------0---0-0-|-----------------|
|-----------3-----|-----------3-----|-----------0-0-3-|-2----2---3---5--|
|-------------0---|-----------------|-------------1-1-|-2--2---4---6----|
|-----0-----------|-----0-----------|-----2-------2-2-|-2---------------|
|---2---2---------|---0---0---------|---2---2---------|-0---------------|
|-3-------------3-|-2-----------3-2-|-0---------------|-----------------|


  D                F#m7/C#            Bm                   Bm/A
  Q  E E E E E E   Q   E  E E E E E   Q   E  E E E  E  E    Q   E E E E E E
|-2--2-2-3-2-----|--------2---------|--------2-----------|--------2---2---2--|
|-3--3---3-3-----|-2--(2)-----2-----|-3--(3)---3----3--3-|-(3)----3---3---3--|
|-2--2---2---2---|-2--(2)-------2---|-4---4------4-----4-|-(4)--4-4-4-4-4-4--|
|-0--0-------0---|-2---2----2---2-2-|-4---4--------(4)-4-|--4---4---4---4-4--|
|--------------0-|-4---4----4---4-4-|-2---2--------(2)-2-|--0----------------|
|----------------|------------------|--------------------|-------------------|


  G                Dadd11/F#        E                 E7  A
   Q  E E E E Q     Q  E E E E Q     Q  E E  E   E  E E   Q  E E E E E E
|-------3-----3--|-------3-----3--|-^0--------------0-0-|-----------------|
|---------3---3--|---------3------|-^0--------------0-3-|-2----2---3---5--|
|-^0--------0----|-^0--------0----|-^1----1-----------1-|-2--2---4---6----|
|-^0--0----------|-^0--0----------|-^2--2----2--------2-|-2---------------|
|-^2-------------|-^0-------------|-^2------(2)--2------|-0---------------|
|-^3-------------|-^2-------------|-^0------(0)-(0)-----|-----------------|


  H=H                       Q=102
  D5    D5/E  D/F#  GIII    AV                AV             D5 D5/D/FGIII
                                                             Gtr III
  E S S E S S E S S E S S   Q.   E Q  E S S   Q.   E Q  Q    Q  Q  Q  E +E
|-------------------------|-0----0-0--0-0-0-|-0----0-0--0--|------------------|
|-3-3-3-3-3-3-3-3-3-3-3-3-|-5----5-5--5-5-5-|-5----5-5--5--|-3--3--3--3-(3)---|
|-2-2-2-2-2-2-2-2-2-4-4-4-|-6----6-6--6-6-6-|-6----6-6--6--|-2--2--2--4-(4)/--|
|-0-0-0-2-2-2-4-4-4-5-5-5-|-7----7-7--7-7-7-|-7----7-7--7--|-0--2--4--5-(5)/--|
|-------------------------|-0----0-0--0-0-0-|-0----0-0--0--|------------------|
|-------------------------|-----------------|--------------|------------------|


  AV              AV             D5 D5/D/FGIII     AV
  W               W              Q  Q  Q  E +E     W
|-0-------------|-0------------|-----------------|-0--------------|
|-5-------------|-5------------|-3--3--3--3-(3)--|-5--------------|
|-6-------------|-6------------|-2--2--2--4-(4)/-|-6--------------|
|-7-------------|-7------------|-0--2--4--5-(5)/-|-7--------------|
|-0----0-0----0-|-0----0-0--0--|-----------------|-0----0-0----0--|
|---------------|--------------|-----------------|----------------|
  Q.   E Q.   E   Q.   E Q  Q                      Q.   E Q.   E


  AV             D5 D5/D/FGIII     AV              AV
  W              Q  Q  Q  E +E     W               W
|-0------------|-----------------|-0-------------|-0-----------------|
|-5------------|-3--3--3--3-(3)--|-5-------------|-5-----------------|
|-6------------|-2--2--2--4-(4)/-|-6-------------|-6-----------------|
|-7------------|-0--2--4--5-(5)/-|-7-------------|-7-----------------|
|-0----0-0--0--|-----------------|-0----0-0----0-|-0--0-0-0-0-0--0---|
|--------------|-----------------|---------------|-------------------|
  Q.   E Q  Q                      Q.   E Q.   E   Q  S S S S Q  Q


                                                               H=H
  D5 D5/D/FGIII     AV              AV              AV                    
Badd11
                                                                          
Gtr III
  Q  Q  Q  E +E     W               W               W          +H..       E
|-----------------|-0-------------|-0-------------|-0--------|-(0)------------|
|-3--3--3--3-(3)--|-5-------------|-5-------------|-5--------|-(5)--------0---|
|-2--2--2--4-(4)/-|-6-------------|-6-------------|-6--------|-(6)--------8---|
|-0--2--4--5-(5)/-|-7-------------|-7-------------|-7--------|-(7)--------9---|
|-----------------|-0----0-0----0-|-0----0-0----0-|-0--------|-(0)--------9---|
|-----------------|---------------|---------------|----------|------------7---|
                    Q.   E Q.   E   Q.   E Q.   E   W          +H..       E


   Verse I
    Q=112                      Q=116
    Aadd9/E   BaddAadd9/E DV   C(type 2)                 DVII
    H..       E   H.      Q    S S S S S S S S S S S S S  S  E
||--------------|------------|---------------------------------|
||o-0---------0-|-0-------7--|---------------------------------|
||--6---------8-|-6-------7--|-5-5-5-5---5---5---5---5----7--7-|
||--7---------9-|-7-------7--|-5-5-5-5---5---5---5---5----7--7-|
||o-7---------9-|-7-------5--|-7-7-7-7---7---7---7---7----9--9-|
||--0---------7-|-0----------|-8-8-8-8---8---8---8---8---10-10-|


  C(type 2)                 DVII
  S S S S S S S S S S S S S  S  E     4x
|-------------------------------------||
|------------------------------------o||
|-5-5-5-5---5---5---5---5----7--7-----||
|-5-5-5-5---5---5---5---5----7--7-----||
|-7-7-7-7---7---7---7---7----9--9----o||
|-8-8-8-8---8---8---8---8---10-10-----||


                Chorus
  H.=H           Q=96
  Aadd9/E        Em7              G5/D
                 Gtr IV
  E H..          E. E S E. E. S S E
|-------------||--------------------|
|-0-----------||-3--3------3--------|
|-6-----------||-0----0---------0---|
|-7-----------||-2------2-----2---0-|
|-7-----------||--------------------|
|-0-----------||--------------------|


         G5/F#  G5/D      Em7             G5/D
  E. E S E. E S S S S S   E. S E Q  E S S E
|-----------------------|--------0------------|
|----3------3-3---------|----3------3---------|
|-0----0----------0-----|---------------0-----|
|--------4------0---0-0-|-2----2------2---0---|
|-----------------------|---------------------|
|-----------------------|---------------------|


         G5/F#    G5/D  Em7(type 2)  G5/D       G5/F#  G5/D      Em7(type 2) 
G5/D
  E. E S E. E S S S E   E. E. Q  E E E   E. E S E. S E S S S S   E. E. Q  Q  
E
|---------------------|-------3--------|----3------3-3---------|-------3-------|
|----3-3----3-3-3-----|----3-----3-3---|-----------------3-----|----3-----3----|
|-0-------------------|----------------|-0----0----------------|---------------|
|--------4--------0-0-|-2------------0-|--------4------0---0-0-|-2-----------0-|
|---------------------|----------------|-----------------------|---------------|
|---------------------|----------------|-----------------------|---------------|


        G5/F#  G5/D    Dadd11              Copen C/B          Dadd11
  E. E. E. E S E S S   E. S E Q  E S S E   E. E. E. E S E E   E. S E Q  Q  E
|----3-----3-3-------|--------5----------|------------------|--------5-------|
|--------------------|----3------3-3-3---|----1-----1-------|----3------3----|
|-0------------------|-------------------|----0-----0-0-----|----------------|
|-------4------0-0-0-|------4----------4-|------------------|------4-------4-|
|--------------------|-5-----------------|-3-----2------0---|-5--------------|
|--------------------|-------------------|----------------3-|----------------|


                                                       Verse II
                                      H=H               Q=112
  Copen  C/B          Fmaj7           G6/D        Badd11Aadd9/E   Badd11
                                                  Gtr III
  E. E S E. E S E E   E. E. Q  E Q      H..       E     H..       E
|-------------------|-------0-------|-^(0)----------||---------------|
|----1-1----1-------|----------1----|-^-3---------0-||o-0---------0--|
|----0-0----0-0-----|------------2--|-^-4---------8-||--6---------8--|
|-------------------|----3----------|-^-5---------9-||--7---------9--|
|-3------2------0---|---------------|-^-5---------9-||o-7---------9--|
|-----------------3-|-1-------------|-------------7-||--0---------7--|


               Q=116
  Aadd9/E DV   C(type 2)                 DVII
  H.      Q    S S S S S S S S S S S S S  S  E
|------------|---------------------------------|
|-0-------7--|---------------------------------|
|-6-------7--|-5-5-5-5---5---5---5---5----7--7-|
|-7-------7--|-5-5-5-5---5---5---5---5----7--7-|
|-7-------5--|-7-7-7-7---7---7---7---7----9--9-|
|-0----------|-8-8-8-8---8---8---8---8---10-10-|


                                      H.=H
  C(type 2)                 DVII      Aadd9/E
  S S S S S S S S S S S S S  S  E  4x E H..
|----------------------------------||----------|
|---------------------------------o||-0--------|
|-5-5-5-5---5---5---5---5----7--7--||-6--------|
|-5-5-5-5---5---5---5---5----7--7--||-7--------|
|-7-7-7-7---7---7---7---7----9--9-o||-7--------|
|-8-8-8-8---8---8---8---8---10-10--||-0--------|


Chorus
  Q=96
  Em7              G5/D       G5/F#  G5/D
  Gtr IV
  E. E S E. E. S S E   E. E S E. S E S S S S
|--------------------|-----------------------|
|-3--3------3--------|----3------3-3---------|
|-0----0---------0---|-0----0----------0-----|
|-2------2-----2---0-|--------4------0---0-0-|
|--------------------|-----------------------|
|--------------------|-----------------------|


  Em7             G5/D       G5/F#    G5/D
  E. S E Q  E S S E   E. E S E. E S S S E
|--------0----------|---------------------|
|----3------3---3---|----3-3----3-3-3-----|
|-------------0-----|-0---------------0-0-|
|-2----2----------0-|--------4------------|
|-------------------|---------------------|
|-------------------|---------------------|


  Em7(type 2)  G5/D       G5/F#      G5/D  Em7(type 2) G5/D      G5/F#  G5/D
  E. E. Q  E E E   E. E S E. S E S S S S   E. E. Q  Q  E   E. E. E. E S E S 
S
|-------3--------|----3------3-3---------|-------3-------|----3-----3-3-------|
|----3-----3-3---|-----------------3-----|----3-----3----|--------------------|
|----------------|-0----0--------0---0-0-|---------------|-0------------------|
|-2------------0-|--------4--------------|-2-----------0-|-------4------0-0-0-|
|----------------|-----------------------|---------------|--------------------|
|----------------|-----------------------|---------------|--------------------|


  Dadd11              Copen C/B          Dadd11           Copen  C/B
  E. S E Q  E S S E   E. E. E. E S E E   E. S E Q  Q  E   E. E S E. E S E E
|--------5----------|------------------|--------5-------|-------------------|
|----3------3-3-3---|----1-----1-------|----3------3----|----1-1----1-------|
|-------------------|----0-----0-0-----|----------------|----0-0----0-0-----|
|------4----------4-|------------------|------4-------4-|-------------------|
|-5-----------------|-3-----2------0---|-5--------------|-3------2------0---|
|-------------------|----------------3-|----------------|-----------------3-|


                                  Breakdown
                  H=H              Q=112
  Fmaj7           G6/D        Badd1Aadd9/E   BaddAadd9/E DV
                              Gtr III
  E. E. Q  E Q      H..       E    H..       E   H.      Q
|-------0-------|-^(0)----------||-------------|-------------|
|----------1----|-^-3---------0-||-0---------0-|-0-------7---|
|------------2--|-^-4---------8-||-6---------8-|-6-------7---|
|----3----------|-^-5---------9-||-7---------9-|-7-------7---|
|---------------|-^-5---------9-||-7---------9-|-7-------5---|
|-1-------------|-------------7-||-0---------7-|-0-----------|


  Q=116
  C(type 2)                 DVII    C(type 2)                 DVII
  S S S S S S S S S S S S S  S  E   S S S S S S S S S S S S S  S  E
|---------------------------------|---------------------------------|
|---------------------------------|---------------------------------|
|-5-5-5-5---5---5---5---5----7--7-|-5-5-5-5---5---5---5---5----7--7-|
|-5-5-5-5---5---5---5---5----7--7-|-5-5-5-5---5---5---5---5----7--7-|
|-7-7-7-7---7---7---7---7----9--9-|-7-7-7-7---7---7---7---7----9--9-|
|-8-8-8-8---8---8---8---8---10-10-|-8-8-8-8---8---8---8---8---10-10-|


  C(type 2)                 DVII    C(type 2)                 DVII
  S S S S S S S S S S S S S  S  E   S S S S S S S S S S S S S S E
|---------------------------------|-------------------------------*|
|---------------------------------|-------------------------------*|
|-5-5-5-5---5---5---5---5----7--7-|-5-5-5-5---5---5---5---5---7-7-*|
|-5-5-5-5---5---5---5---5----7--7-|-5-5-5-5---5---5---5---5---7-7-*|
|-7-7-7-7---7---7---7---7----9--9-|-3-3-3-3---3---3---3---3---5-5-*|
|-8-8-8-8---8---8---8---8---10-10-|-------------------------------*|


Duration Legend
---------------
W - whole; H - half; Q - quarter; E - 8th; S - 16th; T - 32nd; X - 64th; a - 
acciaccatura
+ - note tied to previous; . - note dotted; .. - note double dotted
Uncapitalized letters represent notes that are staccato (1/2 duration)
Irregular groupings are notated above the duration line
Duration letters will always appear directly above the note/fret number it 
represents the
duration for.  Duration letters with no fret number below them represent 
rests.  Multi-
bar rests are notated in the form Wxn, where n is the number of bars to rest 
for.  Low
melody durations appear below the staff

Tablature Legend
----------------
h   - hammer-on
p   - pull-off
b   - bend
pb  - pre-bend
r   - bend release (if no number after the r, then release immediately)
/\  - slide into or out of (from/to "nowhere")
s   - legato slide
S   - shift slide
  - natural harmonic
[n]  - artificial harmonic
n(n) - tapped harmonic
~   - vibrato
tr  - trill
T   - tap
TP  - trem. picking
PM  - palm muting
\n/  - tremolo bar dip; n = amount to dip
\n  - tremolo bar down
n/  - tremolo bar up
/n\  - tremolo bar inverted dip
=   - hold bend; also acts as connecting device for hammers/pulls
<>  - volume swell (louder/softer)
x   - on rhythm slash represents muted slash
o   - on rhythm slash represents single note slash

Misc Legend
-----------
|  - bar
||  - double bar
||o - repeat start
o|| - repeat end
*|  - double bar (ending)
:  - bar (freetime)
$  - Segno
&  - Coda
Tempo markers -  = BPM(8/16=s8/s16), where s8 = swing 8ths, 
s16 = swing 16ths


Добавлено: 28.04.2012
Другие материалы по этой песне:

Страница создана 28.04.2012
http://primanota.ru/rush/the-fountain-of-lamneth-i-in-the-valley-chords.htm
Привет, Гость.
Предлагаем пройти революционный курс по гитаре.
Подарок от PrimaNota.Ru, забирай!