PrimaNota.ru - самый крупный в мире бесплатный архив песенных текстов, аккордов, табулатур и нот


Rush - One Little Victory - текст песни, таба, бас-таба, драм-таба, видео

Регистрация Запомнить меня
Войти через:  Facebook Google Twitter Vk Yandex Mail.ru

Rush - One Little Victory - текст песни, таба, бас-таба, драм-таба, видео

Печатать
Просмотров: 181
#-----------------------------------------------------------------------------#
#-- File created with Instab - http://www.pconline.com/~smcarey/instab.html --#
#-----------------------------------------------------------------------------#

Author/Artist: Rush
Title: One Little Victory
Album: Vapor Trails (Anthem 6682510962)
Transcribed by: Richard J. soto
Email: hrhkinglerxst@comcast.net

Copyright 2002 Atlantic Recording Corporation & Anthem Entertainment
Music by Lee & Lifeson
Updated as of May 21, 2002

There are multiple guitars tracked here on almost every part
of this song. Every 2 measures in the intro basically adds another layer
and they vary slightly throughout the song.

The openning Riff sounds like Lifeson is using some shifting effect set to kill.

There is a one note difference every 2 measures.
The clean quasi-arrpegiated section (Rhy.1A&B) has Lifeson using a very clean
but compressed sound along with slight phaser & ambient delay.
Leading into & during the quasi-arrpegiated sections, there's a low "E" that goe
s
"Dumm Dummm Da Da Dum" that sounds like a thunderous distorted bass
with a touch of crunch guitar that's a studio overdub. But since Lifeson is play
ing the quassi-arrpegiated section during
this, so Neil will probably be creating this using some electronic drum pad when
 played live, similar to how he
does the thunderous bass+jackhammer sound on Force Ten unless the whole thing is
 just gonna be sampled. Geddy may be doing this
also in the studio cut but probably not since I hear Geddy doing some higher sub
tle sliding bass stuff during some of this section but he seems as if he
might be played octaves here, (low & high)
Rhy-2 seems to be a jangly-clean guitar in the fore-front on the left channel allong with
Riff A played in on the right channel a little more buried.
I think the key to playing this well is to barre the chords & avoid strumming the bass strings.
There's some incredibly great strumming & rhythm work going on in the song!
It's Lifeson Jamming Party-Style or something is how I describe it. :)
Note that there is a chordal shape difference in Rhy.2
so be mindfully aware & examine this Rhythm's tab closely.
It's technically just the middle finger in the chord shape switching
from the B string to the G string & back.
Also Rhy.3 is a slight variation of Rhy.2 & both Rhythms vary slightly
on occasion.

The blues riff "Riff-B" is way laid-back compared to the rest of the song
and it varies somewhat throughout but he using a lot of slid notes similar
to the main riff from Xanadu.
This tab is almost the entire song. You'll have to listen for the small rhythmic

lead/solo that Alex plays near the end of the song that's
so simple I'm leaving that open for interpretation on position for now
until I get to tabbing it :)

Special thanks to Jim Cirronella  for his initial input con
cerning the blues riffs.

----------------------------------------------------|-------------------------|
----------------------------------------------------|-------------------------|
----------------------------------------------------|-------------------------|
----------------------------------------------------|-------------------------|
----------------------------------------------------|-------------------------|
-5---5---5h6-5---3---1-p0-1-p0-0h1p0-1-p0-1-p0-0h1p0|-------------------------|
 Riff-A1     .   .

----------------------------------------------------|-------------------------|
----------------------------------------------------|-------------------------|
----------------------------------------------------|-------------------------|
----------------------------------------------------|-------------------------|
----------------------------------------------------|-------------------------|
-5---5---5h6-5-1-3---1-p0-1-p0-0h1p0-1-p0-1-p0-0h1//|-------------------------|
 Riff-A2         .

----------------------------------------------------|-------------------------|
----------------------------------------------------|-------------------------|
----------------------------------------------------|-------------------------|
----------------------------------------------------|-------------------------|
----------------------------------------------------|-------------------------|
-5---5---5h6-5---3---1-p0-1-p0-0h1p0-1-p0-1-p0-0h1//|-------------------------|
 Riff-A3     .   .

----------------------------------------------------|-------------------------|
----------------------------------------------------|-------------------------|
----------------------------------------------------|-------------------------|
----------------------------------------------------|-------------------------|
----------------------------------------------------|-------------------------|
-5---5---5h6-5-1-3---1-p0-1-p0-0h1p0-1-p0-1-p0-0h1p0|-------------------------|
 Riff-A4         .

---------4---4---------------4-----------4---4--|-----------------------------|
-----------5-------------------5-----------5----|-----------------------------|
-------0-------0---------4-0-------0---0--------|-----------------------------|
---0-4---------------0-5---------6---4----------|-----------------------------|
-5-----------------7----------------------------|-----------------------------|
------------------------------------------------|-----------------------------|
 Rhy.1A  i m i     p   m i   i m r   i   i r i  |

---------4---4---------------4---4-\-3---4---0--|-----------------------------|
-----------5---------------5-----------5--------|-----------------------------|
-------0-----------------0---------0-------4----|-----------------------------|
---0-4-------------0-5/6------------------------|-----------------------------|
-5---------------7------------------------------|-----------------------------|
------------------------------------------------|-----------------------------|
 Rhy.1B  i m i   p   r     m i   i   i r m i    |

---------4---4------------------------||--------------------------------------|
-----------5--------------------------||--------------------------------------|
-------0------------------------------||--------------------------------------|
---0-4--------------------------------||--------------------------------------|
-5---------------------7^-------------||--------------------------------------|
---------------------7^--9^-----------||--------------------------------------|
 m   i   i m i       H H H            |

--9---9--9---9--9--9-10\--7\--4/5--4--4--4/5--4--4-4-4-4-||-------------------|
-10--10-10--10-10-10-10\--7\--5/6--5--5--5/6--5--5-5-5-5-||-------------------|
--9---9--9---9--9--9-11\--8\--4/5--4--4--4/5--4--4-4-4-4-||-------------------|
-11--11-11--11-11-11-12\--9\--6/7--6--6--6/7--6--6-6-6-6-||-------------------|
---------------------------------------------------------||-------------------|
---------------------------------------------------------||-------------------|
 Rhy.2 Play 5x

-----------------------------------------------------------------------------|
-----------------------------------------------------------------------------|
-----------------------------------------------------------------------------|
-----------------------------------------------------------------------------|
---------------7-7-5vv-7-5-7-------------------7-7-5vv-7-5-7-----------------|
-----------0-----------------6\5-3-5\3-0---0-----------------6\5-3/5\3-0-h3/5-|
 Riff-B Play5X r r i   r i r m   i r     .|    r r i   r i r m   i        i

-4--4-4--4-4--4/5-4-4/--9---9--9---9--9--9-10\--7\----------------------------|
-5--5-5--5-5--5/6-5-5/-10--10-10--10-10-10-10\--7\----------------------------|
-4--4-4--4-4--4/4-4-4/--9---9--9---9--9--9-11\--8\----------------------------|
-6--6-6--6-6--6/7-6-6/-11--11-11--11-11-11-12\--9\----------------------------|
------------------------------------------------------------------------------|
------------------------------------------------------------------------------|
 Rhy-3                                          .   |

-4---4-4--4-4-4---4-4-4-4-4/--9---9--9---9--9-10-10\--7-7\--|-----------------|
-4h5-5-5--5-5-5p4-4-4-5-5-5/-10--10-10--10-10-10-10\--7-7\--|-----------------|
-4---4-4--4-4-4---4-4-4-4-4/--9---9--9---9--9-11-11\--8-8\--|-----------------|
-6---6-6--6-6-6---6-6-6-6-6/-11--11-11--11-11-12-12\--9-9\--|-----------------|
------------------------------------------------------------|-----------------|
------------------------------------------------------------|-----------------|
 Rhy-3 Continued (Play all total of 4x)

---------4---------------4---4------------4---------------4---4-----------4--|
-------------5-------------5------------------5-------------5----------------|
-----------------------------------------------------------------------------|
-0-4-5p4---------0-5-4-5--------4-0---5-----------0-5-4-5-------4-0---5------|
-----------------------------------------------------------------------------|
-----------------------------------------------------------------------------|
   i m   i   r     m i m i r i  i     m   i   r     m i m i r i i     m   i

---------------------------------------------------------------||-------------|
---------------------------------------------------------------||-------------|
---------------------------------------------------------------||-------------|
---------------------------------------------------------------||-------------|
-7-7-7-5---7---7----------------7-7-5vv--7vv-5-7---------------||-------------|
-----------------6\-5-3-5\3-0--------------------6\-5-3/5\3-0--||-------------|
       .   .                   |                               |

--------------|--------------------------------------------------------------|
--------------|--------------------------------------------------------------|
--------------|--------------------------------------------------------------|
--------------|--------------------------------------------------------------|
--------------|----7-7-5vv-7-5-7-------------------7-7-5vv-7-5-7-------------|
--------------|0-----------------6\5-3-5\3-0---0-----------------6\5-\3------|
 PlayRiff-B 3x                                |                        Drums

-------------------------------------------|-------------------------------|-|
-------------------------------------------|-------------------------------|-|
-------------------------------------------|-------------------------------|-|
-----------2-2-----2/5-2---2-0-------------|-2-2-----2vvvvv----------------|-|
---------------5vv-------5-----2-----------|-----5vv-----------------------|-|
---------------------------------3-5-3-0-2-|-------------------------------|-|
 Play 5x   i i p   m   i p i   i m p m   i

-----||--------------|---------------------------------||---------------------|
-----||--------------|---------------------------------||---------------------|
-----||--------------|---------------------------------||---------------------|
-----||--------------|---------------------------------||---------------------|
-----||--------------|---------------------------------||---------------------|
-----||--------------|---------------------------------||---------------------|
 Stop   Play Rhy.3 8x "Spirit Breakin' Free."

------------|-----------|---------4---4----------------||---------------------|
------------|-----------|-----------5------------------||---------------------|
------------|-----------|-------0----------------------||---------------------|
------------|-----------|---0-4------------------------||---------------------|
------------|-----------|-5-------------------7^----7^-||---------------------|
------------|-----------|-------------------7^--9^-----||---------------------|
 Play Rhy.1A Play Rhy.1B                    H H H   H
Добавлено: 06.03.2012
Другие материалы по этой песне:

Страница создана 06.03.2012
http://primanota.ru/rush/one-little-victory-chords.htm
Привет, Гость.
Предлагаем пройти революционный курс по гитаре.
Подарок от PrimaNota.Ru, забирай!