PrimaNota.ru - самый крупный в мире бесплатный архив песенных текстов, аккордов, табулатур и нот


Rush - Not Fade Away - текст песни, бас-таба, видео

Регистрация Запомнить меня
Войти через:  Facebook Google Twitter Vk Yandex Mail.ru

Rush - Not Fade Away - текст песни, бас-таба, видео

Печатать
Просмотров: 125
Уроки эстрадного вокала в Санкт-Петербурге
Big Rush fans will know this as the band's first ever single, until the internet it was 
rare but mp3s have made it much more accessable so thought I'd tab it up. Pretty simple 
Look for a guitar tab of the same tune coming soon! - Jordan

Riff 1
G------------------|
D------------------|
A------------------|
E--0-0-0-0-0-5-5-0-|

Riff 2
G--------------------|
D--------------------|
A-------------5-5----|
E--5-5-5-5-5-------5-|

Riff 3
G----------------------|
D----------------------|
A---------0-5-7--------|
E--5-5-5---------0-5-7-|

Riff 4
G------------------------|
D------------------------|
A------7---5---4---2-----|
E--0-0---0---0---0---0-0-|

Riff 5
G-------------------------|
D-------------------------|
A-------------------------|
E--0-0--------------------|

Okay that's all the parts of the songs, now for the structure.

Until about 40 seconds there isn't any bass, and then...

Riff 1 x4
Riff 2
Riff 3
Riff 1 x6
Riff 2
Riff 3
Riff 1 x2
Riff 2
Riff 3
Riff 1
Riff 4
Riff 1 x8
Riff 2
Riff 3
Riff 1 x10
Riff 5
(Vocal/Percussion Solo)
Riff 1 x11
Riff 4
Riff 1 till fade
Добавлено: 30.07.2012
Другие материалы по этой песне:
  • Аккорды и текст

Страница создана 30.07.2012
http://primanota.ru/rush/not-fade-away-chords.htm
Привет, Гость.
Предлагаем пройти революционный курс по гитаре.
Подарок от PrimaNota.Ru, забирай!