PrimaNota.ru - самый крупный в мире бесплатный архив песенных текстов, аккордов, табулатур и нот


Rush - Leave That Thing Alone - аккорды и текст, таба, бас-таба, драм-таба, видео

Регистрация Запомнить меня
Войти через:  Facebook Google Twitter Vk Yandex Mail.ru

Rush - Leave That Thing Alone - аккорды и текст, таба, бас-таба, драм-таба, видео

Печатать
Просмотров: 271
Авторы музыки: Geddy Lee, Alex Lifeson

Leave That Thing Alone
Rush
To: jcarson@netcom.com
Subject: Leave That Thing Alone TAB - RUSH
Status: RO

Leave That Thing Alone, off of _Counterparts_
Transcribed by Tony Zimmermann 


----------------------------------------------------------------------|
----------------------------------------------------------------------|
---14-H-16--16--16--16-P-14--14--14--14-------------------------------|
---14-------14--14--14---14--14--14--14-------------------------------|
--(0)-----------------------------------------------------------------|
----------------------------------------------------------------------|

----12----------------------------------------------------------------|
--------10--12--------------------------------------------------------|
----------------12--10--9-----9--10-----------------------------------|
-----------------------------------------10---------------------------|
------------------------------------/12-------------------------------|
----------------------------------------------------------------------|

----12----------------------------------------------------------------|
--------10--12--------------------------------------------------------|
----------------12--10--9---------------------------------------------|
----------------------------12--10------------------------------------|
----------------------------------------------------------------------|
----------------------------------------------------------------------|

----------------------------------------------------------------------|
----------------------------------------------------------------------|
----------------------------------------------------------------------|
----------------------------------------------------------------------|
---0--0---3--3--5---5-5--7---7-7--------------------------------------|
----------------------------------2--2-2--3--3----(4x)----5----------|

-------------------------------|--------------------------------------|
-------------------------------|--------------------------------------|
-------------------------------|--------------------------------------|
------------2-P-0-----2-H-3----|--------------------------------------|
---0--2--3---------3-----------|-----------2-P-0-----2-H-3------------|
-------------------------------|--0--2--3---------3-------------------|

-------------------------------7---------------7-----------------------|
---------7--10-------------------------7---10--------7--7-H-10-P-7-----|
--------------------7--9----7---------------------9----------------7---|
--7--9-----------9------------------9--------------------------------9-|
-----------------------------------------------------------------------|
-----------------------------------------------------------------------|

-----------------------------------------------7----------------------|
---------------------7------------------7-H-10---7--10--12--14-12-----|
---------------------------9--7-----7-----------------------------14--|
--(9)--7---7---7-H-9----9--------9------------------------------------|
---------9------------------------------------------------------------|
----------------------------------------------------------------------|

--12------12----15------17--19--17-tr-19---21--19--21--22--21-(22)----|
------15-----15-----17------------------------------------------F-----|
----------------------------------------------------------------------|
----------------------------------------------------------------------|
----------------------------------------------------------------------|
----------------------------------------------------------------------|

--22--(24)--24--22--24-----22--24--22----(24)--24--22--24--22--24-----|
--------F----------------------------------F--------------------------|
----------------------------------------------------------------------|
----------------------------------------------------------------------|
----------------------------------------------------------------------|
----------------------------------------------------------------------|
Добавлено: 09.06.2012
Другие материалы по этой песне:

Страница создана 10.03.2012
http://primanota.ru/rush/leave-that-thing-alone-chords.htm
Привет, Гость.
Предлагаем пройти революционный курс по гитаре.
Подарок от PrimaNota.Ru, забирай!