PrimaNota.ru - самый крупный в мире бесплатный архив песенных текстов, аккордов, табулатур и нот


Rush - Hemispheres The Sphere - таба, видео

Регистрация Запомнить меня
Войти через:  Facebook Google Twitter Vk Yandex Mail.ru

Rush - Hemispheres The Sphere - таба, видео

Печатать
Просмотров: 136
Уроки эстрадного вокала в Санкт-Петербурге
We can walk our road toge-ther if our goals
         D                  G           Bm
E--------2------------------7-----------2----|
B--------3------------------8-----------3----|
G--------2------------------7-----------4----|
D--------0------------------0-----------4----|
A---------------------------------------2----|
E--------------------------------------------|

  are all the same ...
  (Bm)                 Asus4    A
E-(2)------------------0-0-0----0--------------|
B-(3)------------------3---3----2--------------|
G-(4)------------------2---2----2--------------|
D-(4)------------------2---2----2--------------|
A-(2)------------------0---0----0--------------|
E----------------------------------------------|

  We can run alone and free if we
  (A)    Cm            G
E-(0)----4-------------3------------------|
B-(2)----5-------------3------------------|
G-(2)----6-------------0------------------|
D-(2)----6-------------0------------------|
A-(0)----4-------------2------------------|
E----------------------3------------------|

  pur-sue a   different           aim
      Esus4   E                   F#
E-----0-------0----------0--0-----2-------------|
B-----0-------0----------0--0-----2-------------|
G-----2-------1----------2p-1-----3-------------|
D-----2-------2----------2--2-----4-------------|
A-----2-------2----------2--2-----4-------------|
E-----0-------0----------0--0-----2-------------|

  Let the       truth of love be lighted let the
 (synth notes) (D .............................)
  (F#)          D                G
E-(2)-----------2----------------3--------------|
B-(2)-----------3----------------3--------------|
G-(3)-----------2----------------0--------------|
D-(4)-----------0----------------0--------------|
A-(4)----------------------------2--------------|
E-(2)----------------------------3--------------|

    love of truth sh-ine clear, sensibility
 (..D................C#...................)
    Bm                   A  Asus2
E---2--------------------0----0------------|
B---3--------------------2----0------------|
G---4--------------------2----2------------|
D---4--------------------2----2------------|
A---2--------------------0----0------------|
E------------------------------------------|

   armed with sense and liberty with the
 (.E....................G..............)
   Cm                   G
E--4--------------------3---------------|
B--5--------------------3---------------|
G--6--------------------0---------------|
D--6--------------------0---------------|
A--4--------------------2---------------|
E-----------------------3---------------|

   heart and mind united in a single  perfect
 (.B..........................A.......B-A-G..)
   Bm                         A Asus2 Cmaj7
E--2--------------------------0----0--0------|
B--3--------------------------2----0--0------|
G--4--------------------------2----2--0------|
D--4--------------------------2----2--2------|
A--2--------------------------0----0--3------|
E--------------------------------------------|

   sphere ...
(..A..............B.............D.........)
   F              G             D
E--1----1---------3----3---3----2------------|
B--1-----1--------3-----3-------3------------|
G--2--------2-----0-------------2------------|
D--3--3---3-------0--0---0------0------------|
A--3--------------2--------------------------|
E--1--------------3--------------------------|
Добавлено: 01.04.2012
Другие материалы по этой песне:
  • Аккорды и текст

Страница создана 01.04.2012
http://primanota.ru/rush/hemispheres-the-sphere-chords.htm
Привет, Гость.
Предлагаем пройти революционный курс по гитаре.
Подарок от PrimaNota.Ru, забирай!